Oops, an error
Loading. Please wait.

Die By The Drop bass

version 1
version 1

Whole song

Interactive

5,716 views 1 this week
no commentswrite comment
1 2 3 4 5
x 4
add to favorites
×
Save as Personal and add changes to this tab that will be seen only by you. Learn more ›
×
You can save this tab as Personal to edit and correct it or add notes. All changes will be seen only by you. Learn more »
launch autoscroll
font size
0
reset
guitar tuner
edit
Autoscroll
slow
fast
+/-
esc
set tempo
stop
Author
Difficulty
-------------------------------------------------------------------------------
			     DIE BY THE DROP - THE DEAD WEATHER
-------------------------------------------------------------------------------

Tabbed By : adam smith
e-mail: aaohs@hotmail.com

Tuning: standard

This song is best played with some sort of bass distortion. I used an electro-harmonix 
muff, but anything that gets you close to the sound on the record will work.

INTRO

G|---|            G|---------|
D|---| x30 then   D|-5-5-----|
A|-7-|            A|-----5-7-|
E|---|            E|---------|

VERSE x4

G|---|            G|---------|
D|---| x14 then   D|-5-5-----|
A|-7-|            A|-----5-7-|
E|---|            E|---------|

CHORUS x4

G|-------7--------------|
D|---5-7----5---5-5-----|
A|-7------7---7-----5-7-|
E|----------------------|

PRE-VERSE x2

G|---------|
D|-5-5-----|
A|-----5-7-|
E|---------|

VERSE x2

G|---|            G|---------|
D|---| x14 then   D|-5-5-----|
A|-7-|            A|-----5-7-|
E|---|            E|---------|

CHORUS x4

G|-------7--------------|
D|---5-7----5---5-5-----|
A|-7------7---7-----5-7-|
E|----------------------|

PRE-VERSE x2

G|---------|
D|-5-5-----|
A|-----5-7-|
E|---------|

VERSE x4

G|---|            G|---------|
D|---| x14 then   D|-5-5-----|
A|-7-|            A|-----5-7-|
E|---|            E|---------|

CHORUS x8

G|-------7--------------|
D|---5-7----5---5-5-----|
A|-7------7---7-----5-7-|
E|----------------------|

===============================================================================

            
            
Suggest correction
Creating personal tab
Creating personal tab
You can edit any tab online and save it as your Personal.

You can edit, replace or remove any tab part or add personal notes – all changes will be seen only by you.

Personal tabs can be accessed anytime from any device, even offline.
Learn more »
comments
print report bad tab
guest
You may want to rate the tab now too:
select rating
Wanna post a correction for this tab? Suggest correction