Oops, an error
Loading. Please wait.

Hang You From The Heavens tab

version 2
version 2

Whole song

Interactive

27,066 views 6 this week
6 commentsread comments
1 2 3 4 5
x 13
add to favorites
×
Save as Personal and add changes to this tab that will be seen only by you. Learn more ›
×
You can save this tab as Personal to edit and correct it or add notes. All changes will be seen only by you. Learn more »
launch autoscroll
font size
0
reset
how to read this tab
guitar tuner
edit
Autoscroll
slow
fast
+/-
esc
set tempo
stop
Artist: The Dead Weather
Song: Hsng You From The Heavens
Tunning: Standard
Tabbed By: Indie Nation


Key:

b  - Bend 
r  - Ring
~  - Vibrato
TP - Tremelo Picking (or pedal)
PM - Palm Mute
x  - Dead note



Intro - 4 Bars of Drums then guitar comes in



e|-------------|---------------|-------------|-------------|
B|-------------|---------------|-------------|-------------|
G|-------------|---------------|-------------|-------------|  
D|-------------|---------------|-------------|-------------|
A|-------------|---------------|-------------|-------------|
E|-0--0--3b----|-0--0--3b------|-0--0--3b----|-0--0--3b----|



Verse:

e|-------------|---------------|-------------|-------------|
B|-------------|---------------|-------------|-------------|
G|-------------|---------------|-------------|-------------|  
D|-------------|---------------|-------------|-------------|
A|-------------|---------------|-------------|-------------|
E|-0--0--3b----|-0--0--3b------|-0--0--3b----|-0--0--3b----|

e|-------------|---------------|-------------|-------------|
B|-------------|---------------|-------------|-------------|
G|-------------|---------------|-------------|-------------|  
D|-------------|---------------|-------------|-------------|
A|-------------|---------------|-------------|-------------|
E|-0--0--3b----|-0--0--3b------|-0--0--3b----|-0--0--3b----|


Chorus:

e|-------------------------------|
B|-------------------------------|
G|-----------6-----5-5-----------|
D|-7--7-7----6--6--5-5-5-4--2----|
A|-7--7-7----4--6--3-3-5-4--2----|
E|-5--5-5-------4------3-2--0----| 
 


Verse:

e|-------------|---------------|-------------|-------------|
B|-------------|---------------|-------------|-------------|
G|-------------|---------------|-------------|-------------|  
D|-------------|---------------|-------------|-------------|
A|-------------|---------------|-------------|-------------|
E|-0--0--3b----|-0--0--3b------|-0--0--3b----|-0--0--3b----|

e|-------------|---------------|-------------|-------------|
B|-------------|---------------|-------------|-------------|
G|-------------|---------------|-------------|-------------|  
D|-------------|---------------|-------------|-------------|
A|-------------|---------------|-------------|-------------|
E|-0--0--3b----|-0--0--3b------|-0--0--3b----|-0--0--3b----|



Chorus:

e|-------------------------------|
B|-------------------------------|
G|-----------6-----5-5-----------|
D|-7--7-7----6--6--5-5-5-4--2----|
A|-7--7-7----4--6--3-3-5-4--2----|
E|-5--5-5-------4------3-2--0----| 



Break:

e|-------------------|-------------------|
B|-------------------|-------------------|
G|-------------------|-----------0-------|
D|----0-----4b5~~~---|----0------4b5r4---|
A|-2--x--2-----------|-2--x--2-----------|
E|-0--3--0-----------|-0--3--0-----------|

PM----------------------------|

e|-------------------|-------------------|
B|-------------------|-------------------|
G|-------------------|-----------0-------|
D|----0-----4b5~~~---|----0------4b5r4---|
A|-2--x--2-----------|-2--x--2-----------|
E|-0--3--0-----------|-0--3--0-----------|

PM----------------------------|



Verse:

e|-------------------|-------------------|
B|-------------------|-------------------|
G|-------------------|-----------0-------|
D|----0-----4b5~~~---|----0------4b5r4---|
A|-2--x--2-----------|-2--x--2-----------|
E|-0--3--0-----------|-0--3--0-----------|

e|-------------------|-------------------|
B|-------------------|-------------------|
G|-------------------|-----------0-------|
D|----0-----4b5~~~---|----0------4b5r4---|
A|-2--x--2-----------|-2--x--2-----------|
E|-0--3--0-----------|-0--3--0-----------|

e|-------------------|-------------------|
B|-------------------|-------------------|
G|-------------------|-----------0-------|
D|----0-----4b5~~~---|----0------4b5r4---|
A|-2--x--2-----------|-2--x--2-----------|
E|-0--3--0-----------|-0--3--0-----------|

e|-------------------|-------------------|
B|-------------------|-------------------|
G|-------------------|-----------0-------|
D|----0-----4b5~~~---|----0------4b5r4---|
A|-2--x--2-----------|-2--x--2-----------|
E|-0--3--0-----------|-0--3--0-----------|



Chorus:

e|-------------------------------|
B|-------------------------------|
G|-----------6-----5-5-----------|
D|-7--7-7----6--6--5-5-5-4--2----|
A|-7--7-7----4--6--3-3-5-4--2----|
E|-5--5-5-------4------3-2--0----| 



Break:

Drums for 8 Bars

            TP                  TP 
e|----------12-------|----------12-------|
B|----------15b17----|----------15b17----|
G|-------------------|-------------------|
D|-------------------|-------------------|
A|-2--2--2-----------|-2--2--2-----------|
E|-0--0--0-----------|-0--0--0-----------|

            TP                  TP 
e|----------12-------|----------12-------|
B|----------15b17----|----------15b17----|
G|-------------------|-------------------|
D|-------------------|-------------------|
A|-2--2--2-----------|-2--2--2-----------|
E|-0--0--0-----------|-0--0--0-----------|

e|-------------------|-------------------|
B|-------------------|-------------------|
G|-------------------|-----------0-------|
D|----------4b5~~~---|-----------4b5r4---|
A|-2--2--2-----------|-2--2--2-----------|
E|-0--0--0-----------|-0--0--0-----------|

e|-------------------|-------------------|
B|-------------------|-------------------|
G|-------------------|-----------0-------|
D|----------4b5~~~---|-----------4b5r4---|
A|-2--2--2-----------|-2--2--2-----------|
E|-0--0--0-----------|-0--0--0-----------|

e|-------------------|-------------------|
B|-------------------|-------------------|
G|-------------------|-----------0-------|
D|----------4b5~~~---|-----------4b5r4---|
A|-2--2--2-----------|-2--2--2-----------|
E|-0--0--0-----------|-0--0--0-----------|

e|-------------------|-------------------|
B|-------------------|-------------------|
G|-------------------|-----------0-------|
D|----------4b5~~~---|-----------4b5r4---|
A|-2--2--2-----------|-2--2--2-----------|
E|-0--0--0-----------|-0--0--0-----------|



Chorus:

e|-------------------------------|
B|-------------------------------|
G|-----------6-----5-5-----------|
D|-7--7-7----6--6--5-5-5-4--2----|
A|-7--7-7----4--6--3-3-5-4--2----|
E|-5--5-5-------4------3-2--0----| 


Verse:

e|-------------------|-------------------|
B|-------------------|-------------------|
G|-------------------|-----------0-------|
D|----0-----4b5~~~---|----0------4b5r4---|
A|-2--x--2-----------|-2--x--2-----------|
E|-0--3--0-----------|-0--3--0-----------|

e|-------------------|-------------------|
B|-------------------|-------------------|
G|-------------------|-----------0-------|
D|----0-----4b5~~~---|----0------4b5r4---|
A|-2--x--2-----------|-2--x--2-----------|
E|-0--3--0-----------|-0--3--0-----------|

e|-------------------|-------------------|
B|-------------------|-------------------|
G|-------------------|-----------0-------|
D|----0-----4b5~~~---|----0------4b5r4---|
A|-2--x--2-----------|-2--x--2-----------|
E|-0--3--0-----------|-0--3--0-----------|

e|-------------------|-------------------|
B|-------------------|-------------------|
G|-------------------|-----------0-------|
D|----0-----4b5~~~---|----0------4b5r4---|
A|-2--x--2-----------|-2--x--2-----------|
E|-0--3--0-----------|-0--3--0-----------|


Drum Break - 8 Bars
 
e|-------------------|-------------------|
B|-------------------|-------------------|
G|-------------------|-----------0-------|
D|----0-----4b5~~~---|----0------4b5r4---|
A|-2--x--2-----------|-2--x--2-----------|
E|-0--3--0-----------|-0--3--0-----------|

e|-------------------|-------------------|
B|-------------------|-------------------|
G|-------------------|-----------0-------|
D|----0-----4b5~~~---|----0------4b5r4---|
A|-2--x--2-----------|-2--x--2-----------|
E|-0--3--0-----------|-0--3--0-----------|



Chorus:

e|------------------------------|
B|------------------------------|
G|-----------6-----5-5----------|
D|-7--7-7----6--6--5-5-5-4------|
A|-7--7-7----4--6--3-3-5-4------|
E|-5--5-5-------4------3-2------| 

e|------------------------------|
B|------------------------------|
G|-----------6-----5-5----------|
D|-7--7-7----6--6--5-5-5-4------|
A|-7--7-7----4--6--3-3-5-4------|
E|-5--5-5-------4------3-2------| 

e|-------------------------------|
B|-------------------------------|
G|-----------6-----5-5-----------|
D|-7--7-7----6--6--5-5-5-4--2----|
A|-7--7-7----4--6--3-3-5-4--2----|
E|-5--5-5-------4------3-2--0----| 


Verse: no vocal

e|-------------------|-------------------|
B|-------------------|-------------------|
G|-------------------|-----------0-------|
D|----0-----4b5~~~---|----0------4b5r4---|
A|-2--x--2-----------|-2--x--2-----------|
E|-0--3--0-----------|-0--3--0-----------|

e|-------------------|-------------------|
B|-------------------|-------------------|
G|-------------------|-----------0-------|
D|----0-----4b5~~~---|----0------4b5r4---|
A|-2--x--2-----------|-2--x--2-----------|
E|-0--3--0-----------|-0--3--0-----------|

e|-------------------|-------------------|
B|-------------------|-------------------|
G|-------------------|-----------0-------|
D|----0-----4b5~~~---|----0------4b5r4---|
A|-2--x--2-----------|-2--x--2-----------|
E|-0--3--0-----------|-0--3--0-----------|

e|-------------------|-------------------|
B|-------------------|-------------------|
G|-------------------|-----------0-------|
D|----0-----4b5~~~---|----0------4b5r4---|
A|-2--x--2-----------|-2--x--2-----------|
E|-0--3--0-----------|-0--3--0-----------|



Chorus: no vocal

e|-------------------------------|
B|-------------------------------|
G|-----------6-----5-5-----------|
D|-7--7-7----6--6--5-5-5-4--2----|
A|-7--7-7----4--6--3-3-5-4--2----|
E|-5--5-5-------4------3-2--0----| 

            
            
Suggest correction
Creating personal tab
Creating personal tab
You can edit any tab online and save it as your Personal.

You can edit, replace or remove any tab part or add personal notes – all changes will be seen only by you.

Personal tabs can be accessed anytime from any device, even offline.
Learn more »
comments
print report bad tab
6 comments total. Showing first comments. show 1 bad comment
+2 reply
fid3l 202 Jul 01, 2009 09:16 PM

Just a little correction in the chorus

e|-------------------------------|
B|-------------------------------|
G|-----------6-----5-5-----------|
D|-7--7-7----6--6--5-5-5-4--2----|
A|-7--7-7----4--6--3-3-5-4--2----|
E|-5--5-5-------4------3-2--0----|

+2 reply
indie_nation 2,605 Jul 04, 2009 12:14 PM

Cheers, I updated the tab

guest
You may want to rate the tab now too:
select rating
Wanna post a correction for this tab? Suggest correction