Oops, an error
Loading. Please wait.

I Cant Hear You tab

version 5
version 5

Interactive

2,018 views 1 this week
2 commentsread comments
1 2 3 4 5
x 5
add to favorites
×
Save as Personal and add changes to this tab that will be seen only by you. Learn more ›
×
You can save this tab as Personal to edit and correct it or add notes. All changes will be seen only by you. Learn more »
launch autoscroll
font size
0
reset
how to read this tab
guitar tuner
edit
Autoscroll
slow
fast
+/-
esc
set tempo
stop
Author
Difficulty
Tabbed by: Tom Kelly
E-mail: snowdroq@gmail.com

Tuning: Standard

I love this song and noticed the other tabs were either slightly off or a different version, so I decided to
tab it out in full. This is based on the album version of the song, however there is multiple effects used
throughout the song, one of which seems to be a octave pedal. 

I have written the tab as though the octave pedal is used, if you don't have one, you can either play it like
this (it still sounds good) or move the parts with a pedal up an octave (e.g. play the 8's at 20)

Enjoy!


 This is the main riff used throughout the song
e|--------------------------------------------------|
B|--------------------------------------------------|
G|--------------------------------------------------|
D|-----------------------5-3------------------------|
A|--------3-5~------3--------5-3--------------------|
E|--3-3-6-------3-6---3----------6------------------|


Here are the lead parts, if you're just jamming or playing with a band, I would probably just improvise this,
the whole song is just using the G minor pentatonic scale.

 0:37 - 0:41
e|--6--8p6---------------8p6----|
B|--------8-----------------8---|
G|------------------------------|
D|--------------10-8------------|
A|------------------------------|
E|------------------------------|
 
 0:52 - 1:02
e|--8b9r8~--6-8-6----------------------6-8-6-----------6-8p6-----8p6---|
B|----------------8-8-6-8----8-8-6-8---------8-8-6-8---------8-------8-|
G|---------------------------------------------------------------------|
D|---------------------------------------------------------------------|
A|---------------------------------------------------------------------|
E|---------------------------------------------------------------------|

 1:27 - 1:38
e|--8p6----6-8p6-----6~--------------8s10p8-----------6~-------------6-8p6---|
B|------8--------8-----8--8-8-6-8----------8-8-6-8------8--8-8-6-8---------8-|
G|---------------------------------------------------------------------------|
D|---------------------------------------------------------------------------|
A|---------------------------------------------------------------------------|
E|---------------------------------------------------------------------------|

 1:49 - 2:03
e|-8b10r8~------------8b10~---|
B|----------------------------|
G|----------------------------|
D|----------------------------|
A|----------------------------|
E|----------------------------|

 2:05 - 2:14
e|--8p6----6~------------8p6------------8p6---6~------------------|
B|------8----8--8-8-6-8-----8--8-8-6-8-----8----8--8-8-6-8--------|
G|----------------------------------------------------------------|
D|----------------------------------------------------------------|
A|----------------------------------------------------------------|
E|----------------------------------------------------------------|

 2:16 - 2:27
e|-8b10-8~--8b10-8~---6~--------------8b10-8~--8b10-8~---6~-------------8p6---|
B|----------------------8--8-8-6-8-------------------------8--8-8-6-8------8--|
G|----------------------------------------------------------------------------|
D|----------------------------------------------------------------------------|
A|----------------------------------------------------------------------------|
E|----------------------------------------------------------------------------|

 2:35 - 2:39
e|--8b10--10-8~--6-8-6---|
B|-----------------------|
G|-----------------------|
D|-----------------------|
A|-----------------------|
E|-----------------------|

 3:05 - 3:12
e|--8b9p6s10---|
B|-------------|
G|-------------| x5
D|-------------|
A|-------------|
E|-------------|

 3:14 - 3:21
e|--8b10r8-6-8-6-8b-6------6-6--------6~-----------------8b9r8--|
B|-----------------------------8-8------8--8-8-6-8--------------|
G|--------------------------------------------------------------|
D|--------------------------------------------------------------|
A|--------------------------------------------------------------|
E|--------------------------------------------------------------|

Key
************************************
b - bend
s - slide
r - release bend
p - pull-off
~ - vibrato
************************************

            
            
Suggest correction
Creating personal tab
Creating personal tab
You can edit any tab online and save it as your Personal.

You can edit, replace or remove any tab part or add personal notes – all changes will be seen only by you.

Personal tabs can be accessed anytime from any device, even offline.
Learn more »
comments
print report bad tab
2 comments total.
0 reply
lksroots 10 Feb 13, 2015 03:18 PM

What's the effect they use for the licks? Like at 1:49 to 2:03? It's so high pitched...

0 reply
noisedzn 202 Feb 16, 2015 01:00 AM

An octave pedal, Jack uses a Digitech Whammy.

guest
You may want to rate the tab now too:
select rating
Wanna post a correction for this tab? Suggest correction