Oops, an error
Loading. Please wait.

Three Dollar Hat bass

472 views 1 this week
no commentswrite comment
1 2 3 4 5
1 last vote to show rating
add to favorites
×
Save as Personal and add changes to this tab that will be seen only by you. Learn more ›
×
You can save this tab as Personal to edit and correct it or add notes. All changes will be seen only by you. Learn more »
launch autoscroll
font size
0
reset
guitar tuner
edit
Autoscroll
slow
fast
+/-
esc
set tempo
stop
The Dead Weather - Three Dollar Hat
      Dodge and Burn - 2015
______________________________________________________________________________________________________

G|------9---------------|------9---------------|------9---------------|------9---------------|
D|--7-------7---8~------|--7-------7---8~------|--7-------7---8~------|--7-------7---8~------| Intro
A|----------------------|----------------------|----------------------|----------------------|
E|----------------------|----------------------|----------------------|-------------------10-|


G|------9---------------|------9---------------|------9---------------|------9---------------|
D|--7-------7---8~------|--7-------7---8~------|--7-------7---8~------|--7-------7---8~------| Verse 1
A|----------------------|----------------------|----------------------|----------------------|
E|-------------------10-|-------------------10-|-------------------10-|-------------------10-|

                                                "I'm that.."
G|------9---------------|------9---------------|------9---------------|------9---------------|
D|--7-------7---8~------|--7-------7---8~------|--7-------7---8~------|--7-------7---8~------|    ~
A|----------------------|----------------------|----------------------|----------------------|
E|-------------------10-|-------------------10-|-------------------10-|-------------------10-|

                                                "Jackie said.."
G|------9---------------|------9---------------|------9---------------|------9---------------|
D|--7-------7---8~------|--7-------7---8~------|--7-------7---8~------|--7-------7---8~------|    ~
A|----------------------|----------------------|----------------------|----------------------|
E|-------------------10-|-------------------10-|-------------------10-|-------------------10-|

                                                "Johnny said.."
G|------9---------------|------9---------------|------9---------------|------9---------------|
D|--7-------7---8~------|--7-------7---8~------|--7-------7---8~------|--7-------7---8~------|    ~
A|----------------------|----------------------|----------------------|----------------------|
E|-------------------10-|-------------------10-|-------------------10-|-------------------10-|

                                                "Jackie told.."
G|------9---------------|------9---------------|------9---------------|------9---------------|
D|--7-------7---8~------|--7-------7---8~------|--7-------7---8~------|--7-------7---8~------|    ~
A|----------------------|----------------------|----------------------|----------------------|
E|-------------------10-|-------------------10-|-------------------10-|-------------------10-|

                         "You're crazy"    "and, What do I care.."
G|------9---------------|------9---------------|------9---------------|------9---------------|
D|--7-------7---8~------|--7-------7---8~------|--7-------7---8~------|--7-------7---8~------|    ~
A|----------------------|----------------------|----------------------|----------------------|
E|-------------------10-|-------------------10-|-------------------10-|-------------------10-|


                         "Ha ha ha.."           "I'm that.."
G|------9---------------|------9---------------|------9---------------|------9---------------|
D|--7-------7---8~------|--7-------7---8~------|--7-------7---8~------|--7-------7---8~------|    ~
A|----------------------|----------------------|----------------------|----------------------|
E|-------------------10-|-------------------10-|-------------------10-|-------------------10-|

G|----------------------|
D|--7~------------------|
A|----------------------|
E|----------------------|


G|----------------------------------------------------------------|
D|--------------------------------------------------7-5-----5-----| Bridge/
A|--5-5-5---5-5-5---5-5-5---5-5-5---5-5-5---5-5-5-------8-----8-7-|  Middle Eight
E|----------------------------------------------------------------|


G|----------------------------------------------------------------|
D|--------------------------------------------------7-5-----5-----|
A|--5-5-5---5-5-5---5-5-5---5-5-5---5-5-5---5-5-5-------8-----8-7-|
E|----------------------------------------------------------------|


G|----------------------------------------------------------------|
D|--------------------------------------------------7-5-----5-----|
A|--5-5-5---5-5-5---5-5-5---5-5-5---5-5-5---5-5-5-------8-----8-7-|
E|----------------------------------------------------------------|


G|----------------------------------------------------------------|
D|--------------------------------------------------7-5-----5-----|
A|--5-5-5---5-5-5---5-5-5---5-5-5---5-5-5---5-5-5-------8-----8-7-|
E|----------------------------------------------------------------|


G|----------------------------------------------------------------|
D|--------------------------------------------------7-5-----5-----|
A|--5-5-5---5-5-5---5-5-5---5-5-5---5-5-5---5-5-5-------8-----8-7-|
E|----------------------------------------------------------------|


G|----------------------------------------------------------------|
D|--------------------------------------------------7-5-----5-----|
A|--5-5-5---5-5-5---5-5-5---5-5-5---5-5-5---5-5-5-------8-----8-7-|
E|----------------------------------------------------------------|


G|-------------------------------------------------------------------------------------------|
D|--8-8-8---8-8-8---8-8-8---8-8-8---8-8-8---8-8-8---8-8-8---8-8-7~---------------------------|
A|-------------------------------------------------------------------------------------------| 
E|-------------------------------------------------------------------------------------------|


G|------9---------------|------9---------------|------9---------------|------9---------------|
D|--7-------7---8~------|--7-------7---8~------|--7-------7---8~------|--7-------7---8~------| Verse 2
A|----------------------|----------------------|----------------------|----------------------|
E|----------------------|-------------------10-|----------------------|-------------------10-|


G|------9---------------|------9---------------|------9---------------|------9---------------|
D|--7-------7---8~------|--7-------7---8~------|--7-------7---8~------|--7-------7---8~------|    ~
A|----------------------|----------------------|----------------------|----------------------|
E|----------------------|-------------------10-|----------------------|-------------------10-|

  "Jackie said.."                                                   "ahh shit...."
G|------9---------------|------9---------------|------9---------------|------9---------------|
D|--7-------7---8~------|--7-------7---8~------|--7-------7---8~------|--7-------7---8~------|    ~
A|----------------------|----------------------|----------------------|----------------------|
E|----------------------|-------------------10-|----------------------|-------------------10-|

  "So they hung.."
G|------9---------------|------9---------------|------9---------------|------9---------------|
D|--7-------7---8~------|--7-------7---8~------|--7-------7---8~------|--7-------7---8~------|    ~
A|----------------------|----------------------|----------------------|----------------------|
E|----------------------|-------------------10-|----------------------|-------------------10-|

  "He's that.."
G|------9---------------|------9---------------|------9---------------|------9---------------|
D|--7-------7---8~------|--7-------7---8~------|--7-------7---8~------|--7-------7---8~------|    ~
A|----------------------|----------------------|----------------------|----------------------|
E|----------------------|-------------------10-|----------------------|----------------------|


G|----------------------|
D|--7~------------------|
A|----------------------|
E|----------------------|
______________________________________________________________________________________________________

************************************

| ~  Hold note / Let ring out ( I know this normally means vibrato)

************************************



            
            
Suggest correction
Creating personal tab
Creating personal tab
You can edit any tab online and save it as your Personal.

You can edit, replace or remove any tab part or add personal notes – all changes will be seen only by you.

Personal tabs can be accessed anytime from any device, even offline.
Learn more »
Give kudos to tab author, rate the tab!
1 2 3 4 5
comments
print report bad tab
guest
You may want to rate the tab now too:
select rating
Wanna post a correction for this tab? Suggest correction