Oops, an error
Loading. Please wait.

Treat Me Like Your Mother bass

version 1
version 1

Whole song

Interactive

8,752 views 1 this week
no commentswrite comment
1 2 3 4 5
1 last vote to show rating
add to favorites
×
Save as Personal and add changes to this tab that will be seen only by you. Learn more ›
×
You can save this tab as Personal to edit and correct it or add notes. All changes will be seen only by you. Learn more »
launch autoscroll
font size
0
reset
guitar tuner
edit
Autoscroll
slow
fast
+/-
esc
set tempo
stop
This is just a few parts to the song i sort of figured out, im not sure theyre right but
sound like they fit, i think the bass plays basically what the guitar plays, hopefully
better will take this tab and improve it so its perfect, any corrections or whatever 
me, id like to know where ive went wrong if i have, jakop@hotmail.co.uk.
  Intro:
G|----------------------|
D|----------------------|
A|---------------5p3p2--|
D|--0*----------------5-|
  Verse:
G|---------------------------------|
D|---------------------------------|
A|--------------------------5p3p2--|
D|--0--3-5--00-03-5--0--3-5------5-|
  Chorus:
G|---------------------------------|
D|---------------------------------|
A|--0*----0-2-3-5p3p2p0--------3p2-|
D|---------------------2*----2-----|
  Chorus End:
G|---------------------------------|
D|---------------------------------|
A|--0*----0-2-3-5p3p2p0--------3---|
D|---------------------2*----2---3-|

Listen for timing, pretty straight foreward, and it'll sound damn cool, like most drop d
does.

            
            
Suggest correction
Creating personal tab
Creating personal tab
You can edit any tab online and save it as your Personal.

You can edit, replace or remove any tab part or add personal notes – all changes will be seen only by you.

Personal tabs can be accessed anytime from any device, even offline.
Learn more »
Give kudos to tab author, rate the tab!
1 2 3 4 5
comments
print report bad tab
guest
Wanna post a correction for this tab? Suggest correction