Oops, an error
Loading. Please wait.

The Most Cursed Of Hands tab

2,266 views 9 this week
3 commentsread comments
1 2 3 4 5
x 9
add to favorites
×
Save as Personal and add changes to this tab that will be seen only by you. Learn more ›
×
You can save this tab as Personal to edit and correct it or add notes. All changes will be seen only by you. Learn more »
launch autoscroll
font size
0
reset
how to read this tab
guitar tuner
edit
Autoscroll
slow
fast
+/-
esc
set tempo
stop
Alright, so this tab is probably unnecessarily fleshed out, a lot of this song is very 
repetitive. But everything should be here. If you are having trouble, listen to the song 
and play along, it really isn't that hard. Make sure you are in Drop D Tuning.



Verse 1

"The devil went down to the river..."

e|---------------------------------------------------------------------------|
B|---------------------------------------------------------------------------|
G|---------------------------------------------------------------------------|
D|---0---0---0---0---0---0---0---0---0---0---0---0---0---0-------------------|
A|---------------------------------------------------------------------------|
D|-0---0---0---0---0---0---0---0---0---0---0---0---0---0---------------------|


"Came to fall..."

e|---------------------------------------------------------------------------|
B|---------------------------------------------------------------------------|
G|---------------------------------------------------------------------------|
D|----0---0-----0---0-----------0------------0-----0----0---0----------------|
A|-----------0---------3-2-0-------------------------------------------------|
D|3h5---3---------5-----------5----3h5p3--0------0---0----0------------------|


"While the gambler's stacks..."

e|---------------------------------------------------------------------------|
B|---------------------------------------------------------------------------|
G|---------------------------------------------------------------------------|
D|---0---0---0---0---0---0---0---0---0---0-----------------------------------|
A|---------------------------------------------------------------------------|
D|-0---0---0---0---0---0---0---0---0---0-------------------------------------|


"He lost his sight..."


e|---------------------------------------------------------------------------|
B|---------------------------------------------------------------------------|
G|---------------------------------------------------------------------------|
D|----0---0-----0---0-----------0------------0---0---0---0---0---0---0---0---|
A|-----------0---------3-2-0-------------------------------------------------|
D|3h5---3---------5-----------5----3h5p3--0---0---0---0---0---0---0---0------|



Chorus

"Damned across..."

e|---------------------------------------------------------------------------|
B|-8--6------10--8-----8--6--10--8---(3)-------------------------------------|
G|-7--5------9---7-----7--5--9---7---(2)-------------------------------------|
D|-5--3------7---5-----5--3--7---5----0--------------------------------------|
A|-5--3------7---5-----5--3--7---5----0--------------------------------------|
D|-5--3------7---5-----5--3--7---5----0--------------------------------------|


e|---------------------------------------------------------------------------|
B|---------------------------------------------------------------------------|
G|---------------------------------------------------------------------------|
D|---0---0---0---0---0---0---0---0---0---0---0---0---0---0---0---0-----------|
A|---------------------------------------------------------------------------|
D|-0---0---0---0---0---0---0---0---0---0---0---0---0---0---0---0-------------|



Verse 2

Main Electric Riff

e|-----------------------------------------------------------|
B|-----------------------------------------------------------|
G|-----------------------------------------------------------|
D|----0------------------------------------------------------|  X2
A|---------2-0-3----------0----------------------------------|
D|--0---0--------0--5-3h5----5p3p0--5-5p3p0------------------|

"With the gambler's glory delivered..."

e|---------------------------------------------------------------------------|
B|---------------------------------------------------------------------------|
G|---------------------------------------------------------------------------|
D|---0---0---0---0---0---0------0---0-----0---0-----------0------------------|
A|-------------------------------------0---------3-2-0-----------------------|
D|-0---0---0---0---0---0----3h5---5---------5----------5----3h5p3--0---------|


"And the Devil's wealth..."

e|---------------------------------------------------------------------------|
B|---------------------------------------------------------------------------|
G|---------------------------------------------------------------------------|
D|---0---0---0---0---0---0---0---0---0---0---0---0---0---0-------------------|
A|---------------------------------------------------------------------------|
D|-0---0---0---0---0---0---0---0---0---0---0---0---0---0---------------------|


"so with cunning class..."

e|---------------------------------------------------------------------------|
B|---------------------------------------------------------------------------|
G|---------------------------------------------------------------------------|
D|----0---0-----0---0-----------0-----------0---0---0---0---0---0---0---0----|
A|-----------0---------3-2-0-------------------------------------------------|
D|3h5---3---------5-----------5----3h5p3--0---0---0---0---0---0---0---0------|




Chorus 

"The gambler called..."

e|---------------------------------------------------------------------------|
B|-8--6------10--8-----8--6--10--8---(3)-------------------------------------|
G|-7--5------9---7-----7--5--9---7---(2)-------------------------------------|
D|-5--3------7---5-----5--3--7---5----0--------------------------------------|  X2 
A|-5--3------7---5-----5--3--7---5----0--------------------------------------|
D|-5--3------7---5-----5--3--7---5----0--------------------------------------|


Bridge 


e|---------------------------------------------------------------------------|
B|---------------------------------------------------------------------------|
G|---------------------------------------------------------------------------|
D|---0---0---0---0---0---0---0---0---0---0---0---0---0---0---0---0-----------|
A|---------------------------------------------------------------------------|
D|-0---0---0---0---0---0---0---0---0---0---0---0---0---0---0---0-------------|


e|-----------------------------------------------|
B|-6-6-6-6-6-6-6-6-6-6-6-6-6-6-6-6---------------|
G|-5-5-5-5-5-5-5-5-5-5-5-5-5-5-5-5---------------|
D|-3-3-3-3-3-3-3-3-3-3-3-3-3-3-3-3---------------|
A|-3-3-3-3-3-3-3-3-3-3-3-3-3-3-3-3---------------|
D|-3-3-3-3-3-3-3-3-3-3-3-3-3-3-3-3---------------|

e|---------------------------------------------------------------------------|
B|---------------------------------------------------------------------------|
G|---------------------------------------------------------------------------|
D|---0---0---0---0---0---0---0---0---0---0---0---0---0---0---0---0-----------|
A|---------------------------------------------------------------------------|
D|-0---0---0---0---0---0---0---0---8---8---8---8---8---8---8---8-------------|


e|---------------------------------------------------------------------------|
B|---------------------------------------------------------------------------|
G|---------------------------------------------------------------------------|
D|---0---0---0---0---0---0---0---0-------------------------------------------|
A|---------------------------------------------------------------------------|
D|-0---0---0---0---0---0---0---0---------------------------------------------|

e|-----------------------------------------------|
B|-6-6-6-6-6-6-6-6-6-6-6-6-6-6-6-6---------------|
G|-5-5-5-5-5-5-5-5-5-5-5-5-5-5-5-5---------------|
D|-3-3-3-3-3-3-3-3-3-3-3-3-3-3-3-3---------------|
A|-3-3-3-3-3-3-3-3-3-3-3-3-3-3-3-3---------------|
D|-3-3-3-3-3-3-3-3-3-3-3-3-3-3-3-3---------------|

e|---------------------------------------------------------------------------|
B|---------------------------------------------------------------------------|
G|---------------------------------------------------------------------------|
D|---0---0---0---0---0---0---0---0---0---0---0---0---0---0---0---------------|
A|---------------------------------------------------------------------------|
D|-0---0---0---0---0---0---0---0---8---8---8---8---8---8---8-----------------|

e|-----------------------------------------------------------|
B|-----------------------------------------------------------|
G|-----------------------------------------------------------|
D|----0------------------------------------------------------|  X4
A|---------2-0-3----------0----------------------------------|
D|--0---0--------0--5-3h5----5p3p0--5-5p3p0------------------|



Verse 3

"The Devil said revel..."

e|-----------------------------------------------|
B|-6-6-6-6-6-6-6-6-6-6-6-6-6-6-6-6---------------|
G|-5-5-5-5-5-5-5-5-5-5-5-5-5-5-5-5---------------|
D|-3-3-3-3-3-3-3-3-3-3-3-3-3-3-3-3---------------|
A|-3-3-3-3-3-3-3-3-3-3-3-3-3-3-3-3---------------|
D|-3-3-3-3-3-3-3-3-3-3-3-3-3-3-3-3---------------|


e|-----------------------------------------------------------|
B|-----------------------------------------------------------|
G|-----------------------------------------------------------|
D|----0------------------------------------------------------|
A|---------2-0-3----------0----------------------------------|
D|--0---0--------0--5-3h5----5p3p0--5-5p3p0------------------|


"But the gambler only stood..."

e|-------------------------------------------------|
B|-11-11-11-11-11-11-11-11-11-11-11-11-11-11-11-11-|
G|-10-10-10-10-10-10-10-10-10-10-10-10-10-10-10-10-|
D|-8--8--8--8--8--8--8--8--8--8--8--8--8--8--8--8--|
A|-8--8--8--8--8--8--8--8--8--8--8--8--8--8--8--8--|
D|-8--8--8--8--8--8--8--8--8--8--8--8--8--8--8--8--|


e|-----------------------------------------------------------|
B|-----------------------------------------------------------|
G|-----------------------------------------------------------|
D|----0------------------------------------------------------|
A|---------2-0-3----------0----------------------------------|
D|--0---0--------0--5-3h5----5p3p0--5-5p3p0------------------|

"Now you won a new..."

e|-----------------------------------------------|
B|-6-6-6-6-6-6-6-6-6-6-6-6-6-6-6-6---------------|
G|-5-5-5-5-5-5-5-5-5-5-5-5-5-5-5-5---------------|
D|-3-3-3-3-3-3-3-3-3-3-3-3-3-3-3-3---------------|
A|-3-3-3-3-3-3-3-3-3-3-3-3-3-3-3-3---------------|
D|-3-3-3-3-3-3-3-3-3-3-3-3-3-3-3-3---------------|


He Said He Had a Story riff reprise

e|--------------------------|
B|--------------------------|
G|--------------------------|
D|----3-2-3-2-0---2---0-----| X2
A|------------------4-------|
D|--0-----------------------|


"And then the gambler saw..."

e|---------------------------------------------------------|
B|-11-11-11-11-11-11-11-11-11-11-11-11-11-11-11-11-----(3)-|
G|-10-10-10-10-10-10-10-10-10-10-10-10-10-10-10-10-----(2)-|
D|-8--8--8--8--8--8--8--8--8--8--8--8--8--8--8--8-------0--|
A|-8--8--8--8--8--8--8--8--8--8--8--8--8--8--8--8-------0--|
D|-8--8--8--8--8--8--8--8--8--8--8--8--8--8--8--8-------0--|


Outlook

"Damned across..."



e|-----------------------------------------------------------|
B|-8--6------10--8-----8--6--10--8---------------------------|
G|-7--5------9---7-----7--5--9---7---------------------------|
D|-5--3------7---5-----5--3--7---5---------------------------|
A|-5--3------7---5-----5--3--7---5---------------------------|
D|-5--3------7---5-----5--3--7---5---------------------------|



************************************

| h   Hammer-on
| p   Pull-off

************************************

            
            
Suggest correction
Creating personal tab
Creating personal tab
You can edit any tab online and save it as your Personal.

You can edit, replace or remove any tab part or add personal notes – all changes will be seen only by you.

Personal tabs can be accessed anytime from any device, even offline.
Learn more »
comments
print report bad tab
3 comments total.
+2 reply
j_teether 10 Sep 20, 2016 08:57 AM

Thanks! This song kicks so much ass

0 reply
xiantrailles 10 Jan 08, 2017 03:41 PM

thank you so much.

0 reply
SMV818VMS 10 May 13, 2017 12:08 AM

Here a visual guide!

https://youtu.be/XpJ0cNJF6mk

guest
You may want to rate the tab now too:
select rating
Wanna post a correction for this tab? Suggest correction