Oops, an error
Loading. Please wait.

What It Means To Be Alone bass

1,281 views 1 this week
4 commentsread comments
1 2 3 4 5
x 4
add to favorites
×
Save as Personal and add changes to this tab that will be seen only by you. Learn more ›
×
You can save this tab as Personal to edit and correct it or add notes. All changes will be seen only by you. Learn more »
launch autoscroll
font size
0
reset
guitar tuner
edit
Autoscroll
slow
fast
+/-
esc
set tempo
stop
Author
Difficulty
0:22-0:40
"And everything you thought you had you lost..."

G|----------2-2-------------------------------2-2--------------------|
D|--------0-----3-0-----------5-0-----------0-----3-0-----------5-0--|
A|------3-----------3-------------3-------3-----------3-----1-------3|
E|1-1-1---------------3-3-1-3-------1-1-1---------------3-3---3------|


0:41-0:56
"Prayers from above..."

G|--------------------222-333-3/7-5--------------------|
D|----------------333---------------8-7-555-555/888-888|
A|111-111-333-333--------------------------------------|
E|-----------------------------------------------------|


0:57-1:37
"You, with this cruel and bitter heart..."

G||*---------------------------------------->
D||*333-33-33-333-33-33-----------------30-->
A||*--------------------333-33-33-333-33--3->
E||*---------------------------------------->

                           <---------------------------------------*||
                           <---------------------------------------*||
                           <-111-11-11-111-11131-------------------*||
                           <---------------------444-44-44-444-44-3*||[2x]

1:38-1:57
"Smoke arose on azimuth glares..."

G|-----|
D|8\0--|
A|-----|
E|-----|


1:58-2:12
"Ab ovo, the angel sings... Ad astra, our eyes to the sea..."

G||*-------------------*||
D||*--888-88-----------*||
A||*-------------------*||
E||*----------1--11-3-4*||[3x]

2:13-2:23
G|----------------------|
D|-----11-10-9-5-9-10-10|
A|4/11------------------|
E|----------------------|


2:24-3:03
"Oh but, you, with this cruel and bitter heart..."

G||*---------------------------------------->
D||*333-33-33-333-33-33-----------------30-->
A||*--------------------333-33-33-333-33--3->
E||*---------------------------------------->

                            <-----------------------------------------*||
                            <-----------------------------------------*||
                            <-111-11-11-111-11131---------------------*||
                            <---------------------444-44-44-444-44-3\1*||[2x]
                                                           Slide down to 1 on
                                                           the second repeat.
3:04-3:24
"With our feet beneath us..."

G|------------------------------------------|
D|------------------------------------------|
A|------------------------------------------|
E|1/13---13-11-10-10---10-10-9-9-9-8-7-7-7-8|


3:25-END
"Don't fade away..."

G|------------------------------------------------------|
D|--------------------1------------------1h2/3-1-0------|
A|1-1--------11-1-------1-1------1/3~~~4-----------4-3-1|
E|----1-11-1------111-------1-11------------------------|

            
            
Suggest correction
Creating personal tab
Creating personal tab
You can edit any tab online and save it as your Personal.

You can edit, replace or remove any tab part or add personal notes – all changes will be seen only by you.

Personal tabs can be accessed anytime from any device, even offline.
Learn more »
comments
print report bad tab
4 comments total. Showing first comments.
0 reply
yoshinamoriiii 10 Dec 02, 2016 10:27 PM

I feel like this is not

G||*-------------------*||
D||*--888-88-----------*||
A||*-------------------*||
E||*----------1--11-3-4*||[3x]

but

G||*-------------------*||
D||*--88-88------------*||
A||*-------------------*||
E||*----------1--11-3-4*||[3x]

I might be wrong because the bass is hard to listen in this song. I am having a hard time trying to figure out how to play the 0:41 -> 1:37 part also.

0 reply
Janky_Hoopty 500 Dec 08, 2016 08:26 PM

yoshi, you're probably right. i tabbed most of these dear hunter songs out /years/ ago, after only playing bass for a couple weeks... so now that i can actually play my instrument, i'm gonna revisit all my submissions and make sure they're 100% correct!

0 reply
yoshinamoriiii 10 Dec 23, 2016 04:17 PM

Alright! To be honest this a an amazingly accurate tab overall. Congrats :)

guest
You may want to rate the tab now too:
select rating
Wanna post a correction for this tab? Suggest correction