Oops, an error
Loading. Please wait.

Who Are You Defenders Of The Universe tab

359 views 6 this week
no commentswrite comment
1 2 3 4 5
3 more votes to show rating
add to favorites
×
Save as Personal and add changes to this tab that will be seen only by you. Learn more ›
×
You can save this tab as Personal to edit and correct it or add notes. All changes will be seen only by you. Learn more »
launch autoscroll
font size
0
reset
how to read this tab
guitar tuner
edit
Autoscroll
slow
fast
+/-
esc
set tempo
stop
Author
Difficulty
-------------------------------------------------------------------------------
                             WHO ARE YOU, DEFENDERS OF THE UNIVERSE?
                            As recorded by The Dears
                      (From the 2003 Album NO CITIES LEFT)
-------------------------------------------------------------------------------

Words by Murray Lightburn

Music by George Donoso III, Murray Lightburn, Martin Pelland & Natalia Yanchak

Transcribed by BaronLundi

Gtr I (E A D G B E) - 'Acoustic'
Gtr II (E A D G B E) - 'Overdrive'
Gtr III (E A D G B E) - 'Clean'

    Q=65
   3/4
    Gtr III
     |--3--| |--3--|  |--3--|   |--3--|  |--3--|
     E  E  E E  E  E  E  E  E   E  E  E  E  E  E Q   3x
||-----------9-------10-------|-9----------------9---||
||o-------12---12-------12----|---12----------12----o||
||-----11---------11-------11-|------11----11--------||
||--12------------------------|---------12-----------||
||o---------------------------|---------------------o||
||----------------------------|----------------------||


                                 1.
    |--3---| |--3---| |--3---|   |--3---| |--3---| |--3---|
    E. S S S E. S S S E. S S S   E. S S S E. S S S E. S S S
||--2--2---2-2--2---2-2--2---2-|-2--2---x-2--2---2-2--2---2--||
||o-3--3-3-3-2--2---2-3--3-3-3-|-3--3-3-x-3--3-3-3-3--3-3-3-o||
||--4--4-4-4-2--2-2-2-4--4-4-4-|-4--4-4-x-4--4-4-4-4--4-4-4--||
||--4----4---4----4-4-4----4---|-4----4---4----4---4----4----||
||o-2--------4----4---2--------|-2--------2--------2--------o||
||-----------2-----------------|-----------------------------||


 2.
  |--3---| |--3---| |-3-| |-3-|
  E. S S S E. S S S S S S S S S
|-2--2---x-2--2---2-2-2-2-2---2--||
|-3--3-3-x-3--3-3-3-3-3-3-3-3-3-o||
|-4--4-4-x-4--4-4-4-4-4-4-4-4-4--||
|-4----4---4----4---4---4---4----||
|-2--------2--------2-----------o||
|--------------------------------||


  |--3---| |--3---| |--3---|     |--3---| |--3---| |--3---|
  E. S S S E. S S S E. S S S     E. S S S E. S S S E. S S S
|-2--2---2-2--2---2-2--2---2-||--2--2---2-2--2---2-0--0---0-|
|-3--3-3-3-2--2---2-3--3-3-3-||o-3--3-3-3-3--3-3-3-3--3-3-3-|
|-4--4-4-4-2--2-2-2-4--4-4-4-||--4--4-4-4-4--4-4-4-4--4-4-4-|
|-4----4---4----4-4-4----4---||--4----4---4----4---4----4---|
|-2--------4----4---2--------||o-2--------2--------0--------|
|----------2-----------------||-----------------------------|


  |--3---| |--3---| |--3---|
  E. S S S E. S S S E. S S S
|-3----3---0----0---0--0-0-----||
|-3----3---0----0---2--2-2----o||
|-4--4-4---0--0-0---2--2-2-----||
|-5--5-5---2--2-2---2--2-2-----||
|-5--5-----2--2-----0--0-0----o||
|-3--3-----0--0----------------||


  |--3---| |--3---| |--3---|     |--3---| |--3---|  |----3-----|
  E. S S S E. S S S E. S S S     E. S S S E. S S S  E.    S  S S
|-2--2---x-2--2---2-2--2---2-||--2--2---2-2--2---2--2-----2----2-|
|-3--3-3-x-3--3-3-3-3--3-3-3-||o-3--3-3-3-2--2---2--3-----3--3-3-|
|-4--4-4-x-4--4-4-4-4--4-4-4-||--4--4-4-4-2--2-2-2--4-----4--4-4-|
|-4----4---4----4---4----4---||--4----4---4--4-4-4--4--------4---|
|-2--------2--------2--------||o-2--------4----4----2------------|
|----------------------------||-----------2----------------------|
|
| Gtr III
|                                                   |---3----|
| W                              H                  E   E    E
|----------------------------||----------------------------------|
|----------------------------||o----------------------------12---|
|----------------------------||------------------------11--------|
|----------------------------||--------------------12------------|
|----------------------------||o---------------------------------|
|----------------------------||----------------------------------|


  1.
  |----3-----|  |----3-----| |--3---|
  E.    S  S S  E.    S  S S E. S S S
|-2-----2----x--2-----2----2-2--2---2--||
|-3-----3--3-x--3-----3--3-3-3--3-3-3-o||
|-4-----4--4-x--4-----4--4-4-4--4-4-4--||
|-4--------4----4--------4---4----4----||
|-2-------------2------------2--------o||
|--------------------------------------||
|
| |---3----|    |---3----|
| E   E    E    E   E    E   Q
|-9------------10------------9---------||
|----12------------12-----------------o||
|---------11------------11-------------||
|--------------------------------------||
|-------------------------------------o||
|--------------------------------------||


  2.
  |----3-----|  |----3-----| |----3-----|
  E.    S  S S  E.    S  S S E.    S  S S
|-2-----2----x--2-----2----2-2-----2----2--||
|-3-----3--3-x--3-----3--3-3-3-----3--3-3-o||
|-4-----4--4-x--4-----4--4-4-4-----4--4-4--||
|-4--------4----4--------4---4--------4----||
|-2-------------2------------2------------o||
|------------------------------------------||
|
| |---3----|    |---3----|   |---3----|
| E   E    E    E   E    E   E   E    E
|-9------------10------------9-------------||
|----12------------12-----------12--------o||
|---------11------------11-----------11----||
|------------------------------------------||
|-----------------------------------------o||
|------------------------------------------||


  |--3---| |--3---|  |----3-----|   |----3-----|  |----3-----|  |----3-----|
  E. S S S E. S S S  E.    S  S S   E.    S  S S  E.    S  S S  E. S   S   S
|-2--2---2-2--2---2--2-----2----2-|-2-----2----x--2-----2----2--0--0-------0-|
|-3--3-3-3-2--2---2--3-----3--3-3-|-3-----3--3-x--3-----3--3-3--3--3---3---3-|
|-4--4-4-4-2--2-2-2--4-----4--4-4-|-4-----4--4-x--4-----4--4-4--4--4---4---4-|
|-4----4---4--4-4-4--4--------4---|-4--------4----4--------4----4------4-----|
|-2--------4----4----2------------|-2-------------2-------------0------------|
|----------2----------------------|------------------------------------------|
|
|                    |---3----|     |---3----|    |---3----|    |--3---|
| H                  E   E    E     E   E    E    E   E    E    Q     +E
|---------------------------------|-9------------10------------12----(12)\---|
|----------------------------12---|----12------------12----------------------|
|-----------------------11--------|---------11------------11-----------------|
|-------------------12------------|------------------------------------------|
|---------------------------------|------------------------------------------|
|---------------------------------|------------------------------------------|


    |----3----| |--3---| |--3---|    |--3---| |--3---|  |--3---|
    E. S  S   S E. S S S E. S S S    E. S S S E. S S S  E. S S S   3x
||--3-----3-----0----0---0--0-0---|--2--2---2-2--2---2--0--0---0---||
||o-3-----3-----0----0---2--2-2---|--3--3-3-3-3--3-3-3--3--3-3-3--o||
||--4--4--4-----0--0-0---2--2-2---|--4--4-4-4-4--4-4-4--4--4-4-4---||
||--5--5--5-----2--2-2---2--2-2---|--4----4---4----4----4----4-----||
||o-5--5--------2--2-----0--0-0---|--2--------2---------0---------o||
||--3--3--------0--0--------------|--------------------------------||
|
|                                                       ~~~
|   |--3--|
|   Q    +E     Q        Q           H                 +Q          3x
||--------------------------------|-^2-----------------(2)---------||
||o-------------------------------|-^3-----------------(3)--------o||
||--------------------------------|-^4-----------------(4)---------||
||--------------------------------|--------------------------------||
||o----------------------0--------|-------------------------------o||
||--3----(3)\---0-----------------|--------------------------------||


                                   4/4
  |----3----| |--3---| |--3---|      |---3----| |--3---| |----3----| |--3---|
  E. S  S   S E. S S S E. S S S      E   S  E S E. S S S E   S E   S E. S S S
|-3-----3-----0----0---0--0-0---||---2---2----2-2--2---2----------------------|
|-3-----3-----0----0---2--2-2---||o--3---3--3-3-3--3-3-3-5---5-5---5-5--5-5-5-|
|-4--4--4-----0--0-0---2--2-2---||---4---4--4-4-4--4-4-4-5---5-5---5-5--5-5-5-|
|-5--5--5-----2--2-2---2--2-2---||---4------4---4----4---5---5-5---5-5--5-5-5-|
|-5--5--------2--2-----0--0-0---||o--2----------2--------3---3-3---3-3--3-3-3-|
|-3--3--------0--0--------------||--------------------------------------------|
|
|                                               ~~
| |--3--|                            |---3----|          |----3----|
| Q    +E     Q        Q            +E  +E.   S Q        S S S S S S Q
|-------------------------------||--------------------------------------------|
|-------------------------------||o----------------------------5-----7--------|
|-------------------------------||--------------7----------5-------5----------|
|-------------------------------||--------------7--------5--------------------|
|----------------------0--------||o-(0)-(0)---9-------------------------------|
|-3----(3)\---0-----------------||--------------------------------------------|


   |---3----| |--3---| |----3-----| |-----------3-----------|
   E   S  E S E. S S S E.     S S S E.            S     S   S
|--0------0---2--2---2-0------0---0-2-------------2---------2-----||
|--0------0---0--0---0-1------1-1-1-0-------------0-----0---0----o||
|--0---0--0-0-0--0-0-0-0------0-0-0-0-------------0-----0---0-----||
|--2---2--2-2-2--2-2-2-2--------2---2-------------------2---------||
|--2---2----2-2----2---3------------3-------------------3--------o||
|--0---0----0-0----0----------------3-----------------------------||
|
|             ~~
|  |---3----|          |----3-----| |-----------3-----------|
| +E  +E.   S Q        S  S S S S S S  +S    +S  +S    +S  +S
|-----------------------------------------------------------------||
|-(7)-(7)---------------------5-----7--(7)b8-(7)-(7)b8-(7)-(7)b8-o||
|-------------7-----------5-------5-------------------------------||
|-------------7--------5------------------------------------------||
|-----------9----------------------------------------------------o||
|-----------------------------------------------------------------||


   |---3----| |--3---| |----3-----| |--3---|
   E   S  E S E. S S S E.     S S S E. S S S
|--0------0---2----2---0------0---0-2--2---2-|
|--0------0---0----0---1------1-1-1-0--0-0-0-|
|--0---0--0-0-0--0-0-0-0------0-0-0-0--0-0-0-|
|--2---2--2-2-2--2-2-2-2--------2---2----2---|
|--2---2--2-2-2--2---2-3--------3---3----3---|
|--0---0----0-0--0---0--------------3--------|
|
|             ~~
|  |---3----|          |----3-----|
| +E  +E.   S Q        S  S S S S S Q
|--------------------------------------------|
|-(7)-(7)---------------------5-----7--------|
|-------------7-----------5-------5----------|
|-------------7--------5---------------------|
|-----------9--------------------------------|
|--------------------------------------------|


                                      1.
   3/4
    |--3---| |--3---|  |----3-----|   |----3-----|  |----3-----| |--3---|
    E. S S S E. S S S  E.    S  S S   E.    S  S S  E.    S  S S E. S S S
||--2--2---2-2--2---2--2-----2----2-|-2-----2--2-x--2-----2----2-2--2---2--||
||o-3--3-3-3-2--2---2--3-----3--3-3-|-3-----3--3-x--3-----3--3-3-3--3-3-3-o||
||--4--4-4-4-2--2---2--4-----4--4-4-|-4-----4--4-x--4-----4--4-4-4--4-4-4--||
||--4----4---4--4-4----4--------4---|-4--------4----4--------4---4----4----||
||o-2--------4----4----2------------|-2-------------2------------2--------o||
||-----------2----2-----------------|--------------------------------------||
|
|                      |---3----|     |---3----|    |---3----|
|   H                  E   E    E     E   E    E    E   E    E   Q
||----------------------------------|-9------------10------------9---------||
||o----------------------------12---|----12------------12-----------------o||
||------------------------11--------|---------11------------11-------------||
||--------------------12------------|--------------------------------------||
||o---------------------------------|-------------------------------------o||
||----------------------------------|--------------------------------------||


  2.
  |----3-----|  |----3-----| |----3-----|
  E.    S  S S  E.    S  S S E.    S  S S
|-2-----2--2-x--2-----2----2-2-----2----2---||
|-3-----3--3-x--3-----3--3-3-3-----3--3-3--o||
|-4-----4--4-x--4-----4--4-4-4-----4--4-4---||
|-4--------4----4--------4---4--------4-----||
|-2-------------2------------2-------------o||
|-------------------------------------------||
|
| |---3----|    |---3----|   |---3----|
| E   E    E    E   E    E   E   E    E
|-9------------10------------9--------------||
|----12------------12-----------12---------o||
|---------11------------11-----------11-----||
|-------------------------------------------||
|------------------------------------------o||
|-------------------------------------------||


  |--3---| |--3---|  |----3-----|   |----3-----|  |----3-----|  |----3-----|
  E. S S S E. S S S  E.    S  S S   E.    S  S S  E.    S  S S  E. S   S   S
|-2--2---2-2--2---2--2-----2----2-|-2-----2----x--2-----2----2--0--0-------0-|
|-3--3-3-3-2--2---2--3-----3--3-3-|-3-----3--3-x--3-----3--3-3--3--3---3---3-|
|-4--4-4-4-2--2---2--4-----4--4-4-|-4-----4--4-x--4-----4--4-4--4--4---4---4-|
|-4----4---4--4-4----4--------4---|-4--------4----4--------4----4------4-----|
|-2--------4----4----2------------|-2-------------2-------------0------------|
|----------2----2-----------------|------------------------------------------|
|
|                    |---3----|     |---3----|    |---3----|    |--3---|
| H                  E   E    E     E   E    E    E   E    E    Q     +E
|---------------------------------|-9------------10------------12----(12)\---|
|----------------------------12---|----12------------12----------------------|
|-----------------------11--------|---------11------------11-----------------|
|-------------------12------------|------------------------------------------|
|---------------------------------|------------------------------------------|
|---------------------------------|------------------------------------------|


    |----3----| |--3---| |--3---|    |--3---| |--3---|  |--3---|
    E. S  S   S E. S S S E. S S S    E. S S S E. S S S  E. S S S   4x
||--3-----3-----0----0---0--0-0---|--2--2---2-2--2---2--0--0---0---||
||o-3-----3-----0----0---2--2-2---|--3--3-3-3-3--3-3-3--3--3-3-3--o||
||--4--4--4-----0--0-0---2--2-2---|--4--4-4-4-4--4-4-4--4--4-4-4---||
||--5--5--5-----2--2-2---2--2-2---|--4----4---4----4----4----4-----||
||o-5--5--------2--2-----0--0-0---|--2--------2---------0---------o||
||--3--3--------0--0--------------|--------------------------------||
|
|                                                       ~~~
|   |--3--|
|   Q    +E     Q        Q           H                 +Q          4x
||--------------------------------|-^2-----------------(2)---------||
||o-------------------------------|-^3-----------------(3)--------o||
||--------------------------------|-^4-----------------(4)---------||
||--------------------------------|--------------------------------||
||o----------------------0--------|-------------------------------o||
||--3----(3)\---0-----------------|--------------------------------||


    |-----3-----| |---3----| |---3----|    |---3----| |---3----|  |---3----|
    E.   S  S   S E.   S S S E.   S S S    E.   S S S E.   S S S  E.   S S S
||--3-------3-----0------0---0----0-0---|--2----2---2-2----2---2--0----0---0--||
||o-3-------3-----0------0---2----2-2---|--3----3-3-3-3----3-3-3--3----3-3-3-o||
||--4----4--4-----0----0-0---2----2-2---|--4----4-4-4-4----4-4-4--4----4-4-4--||
||--5----5--5-----2----2-2---2----2-2---|--4------4---4------4----4------4----||
||o-5----5--------2----2-----0----0-0---|--2----------2-----------0----------o||
||--3----3--------0----0----------------|-------------------------------------||
|
|   Gtr II
|   |---3---|     |--3---|   |--3---|      |--3---|   |--3---|    |--3---|
|   E  E    E     E  E   E   E  E   E      E  E   E   E  E   E    E  E   E
||--3--3----3-----0--0---0---0--0---0---|--2--2---2---2--2---2----0--0---0----||
||o-3--3----3-----0--0---0---2--2---2---|--3--3---3---3--3---3----3--3---3---o||
||--4--4----4-----0--0---0---2--2---2---|--4--4---4---4--4---4----4--4---4----||
||--5--5----5-----2--2---2---2--2---2---|--4--4---4---4--4---4----4--4---4----||
||o-5--5----5-----2--2---2---0--0---0---|--2--2---2---2--2---2----0--0---0---o||
||--3--3----3-----0--0---0--------------|-------------------------------------||
|
|   Gtr III
|                                                                 ~~~
|   |---3---|
|   Q      +E     Q          Q             H                     +Q
||--------------------------------------|-^2---------------------(2)----------||
||o-------------------------------------|-^3---------------------(3)---------o||
||--------------------------------------|-^4---------------------(4)----------||
||--------------------------------------|-------------------------------------||
||o--------------------------0----------|------------------------------------o||
||--3------(3)\---0---------------------|-------------------------------------||


   |----3-----|  |----3-----|  |----3-----|
   E.    S  S S  E.    S  S S  E.    S  S S
|--3--------3----0--------0----0-----0--0---|
|--3--------3----0--------0----2-----2--2---|
|--4-----4--4----0-----0--0----2-----2--2---|
|--5-----5--5----2-----2--2----2-----2--2---|
|--5-----5-------2-----2-------0-----0--0---|
|--3-----3-------0-----0--------------------|
|
|  |---3----|    |---3----|    |---3----|
|  E   E    E    E   E    E    E   E    E
|--3---3----3----0---0----0----0---0----0---|
|--3---3----3----0---0----0----2---2----2---|
|--4---4----4----0---0----0----2---2----2---|
|--5---5----5----2---2----2----2---2----2---|
|--5---5----5----2---2----2----0---0----0---|
|--3---3----3----0---0----0-----------------|
|
| Gtr II
|  |---3----|    |---3----|    |---3----|
|  E   E    E    E   E    E    E   E    E
|-------------------------------------------|
|-12--12---12---12--12---12---12--12---12---|
|-------------------------------------------|
|--9---9----9----9---9----9----9---9----9---|
|-------------------------------------------|
|-------------------------------------------|


   |----3-----|  |----3-----|  |----3-----|    |----3-----|  |----3-----|  |----3-----|
   E.    S  S S  E.    S  S S  E.    S  S S    E.    S  S S  E.    S  S S  E.    S  S S
|--2-----2----2--2-----2----2--0-----0----0-|--3--------3----0--------0----0-----0--0---|
|--3-----3--3-3--3-----3--3-3--3-----3--3-3-|--3--------3----0--------0----2-----2--2---|
|--4-----4--4-4--4-----4--4-4--4-----4--4-4-|--4-----4--4----0-----0--0----2-----2--2---|
|--4--------4----4--------4----4--------4---|--5-----5--5----2-----2--2----2-----2--2---|
|--2-------------2-------------0------------|--5-----5-------2-----2-------0-----0--0---|
|-------------------------------------------|--3-----3-------0-----0--------------------|
|
|  |---3----|    |---3----|    |---3----|      |---3----|    |---3----|    |---3----|
|  E   E    E    E   E    E    E   E    E      E   E    E    E   E    E    E   E    E
|--2---2----2----2---2----2----0---0----0---|--3---3----3----0---0----0----0---0----0---|
|--3---3----3----3---3----3----3---3----3---|--3---3----3----0---0----0----2---2----2---|
|--4---4----4----4---4----4----4---4----4---|--4---4----4----0---0----0----2---2----2---|
|--4---4----4----4---4----4----4---4----4---|--5---5----5----2---2----2----2---2----2---|
|--2---2----2----2---2----2----0---0----0---|--5---5----5----2---2----2----0---0----0---|
|-------------------------------------------|--3---3----3----0---0----0-----------------|
|
|  |---3----|    |---3----|    |---3----|      |---3----|    |---3----|    |---3----|
|  E   E    E    E   E    E    E   E    E      E   E    E    E   E    E    E   E    E
|-------------------------------------------|-------------------------------------------|
|-12--12---12---12--12---12---12--12---12---|-12--12---12---12--12---12---12--12---12---|
|-------------------------------------------|-------------------------------------------|
|--9---9----9----9---9----9----9---9----9---|--9---9----9----9---9----9----9---9----9---|
|-------------------------------------------|-------------------------------------------|
|-------------------------------------------|-------------------------------------------|


   4/4
      |--3---| |--3--| |--3--|   |-3-|
      E  S E S E S E S E S E S a E E E
||----2--2---2-2-2---2-----------------|
||o---3--3-3-3-3-3-3-3-5-5-5-5---------|
||----4--4-4-4-4-4-4-4-5-5-5-5---------|
||----4----4---4---4---5-5-5-5---------|
||o---2--------2-------3-3-3-3-2-3-2---|
||-----------------------------------3-|
|
|    +W
||-------------------------------------|
||o-(12)-------------------------------|
||-------------------------------------|
||---(9)-------------------------------|
||o------------------------------------|
||-------------------------------------|


    |-3--| |---3---| |--3--| |---3---|
    E. E S E +S  S E E S E S E S S S S
|------0-0-2-(2)---2-0-0---0-2-2---2----||
|------0-0-0-(0)---0-1-1-1-1-0-0-0-0-0-o||
|------0-0-0-(0)---0-0-0-0-0-0-0-0-0-0--||
|------2-2-2-(2)-2-2-2---2---2---2---2--||
|------2-2-2-(2)-2---3-------3---3-----o||
|---0--0-0-0-(0)-0-----------3----------||
|
|  +W
|---------------------------------------||
|-(12)---------------------------------o||
|---------------------------------------||
|--(9)----------------------------------||
|--------------------------------------o||
|---------------------------------------||


    |---3---| |--3---| |----3----| |--3---|
    E S E   S E. S S S E   S E   S E. S S S
||--2-2-----2-2--2---2----------------------|
||o-3-3-3---3-3--3-3-3-5---5-5---5-5--5-5-5-|
||--4-4-4---4-4--4-4-4-5---5-5---5-5--5-5-5-|
||--4---4-----4----4---5---5-5---5-5--5-5-5-|
||o-2---------2--------3---3-3---3-3--3-3-3-|
||------------------------------------------|
|
|   Gtr III
|             ~~
|   |---3---|          |----3----|
|   Q     S S Q        S S S S S S Q
||------------------------------------------|
||o--------------------------5-----7--------|
||------------7----------5-------5----------|
||----------9-7--------5--------------------|
||o-----------------------------------------|
||------------------------------------------|


   |---3----| |--3---| |----3-----| |-----------3-----------|
   E   S  E S E. S S S E.     S S S E.            S     S   S     4x
|--0---0----0-2--2---2-0------0---0-2-------------2---------2-----||
|--0---0----0-0--0---0-1------1-1-1-0-------------0-----0---0----o||
|--0---0----0-0--0---0-0------0-0-0-0-------------0-----0---0-----||
|--2------2---2----2---2--------2---2-------------------2---------||
|--2------2---2----2---3------------3-------------------3--------o||
|--0------0---0----0----------------3-----------------------------||
|
|             ~~
|  |---3----|          |----3-----| |-----------3-----------|
| +E  +E.   S Q        S  S S S S S S  +S    +S  +S    +S  +S     4x
|-----------------------------------------------------------------||
|-(7)-(7)---------------------5-----7--(7)b8-(7)-(7)b8-(7)-(7)b8-o||
|-------------7-----------5-------5-------------------------------||
|-------------7--------5------------------------------------------||
|-----------9----------------------------------------------------o||
|-----------------------------------------------------------------||


  |---3---| |--3---| |----3-----| |-----------3-----------|
  E  S  E S E. S S S E.     S S S E.            S     S   S
|-0--0----0-2--2---2-0------0---0-2-------------2---------2----|
|-0--0----0-0--0---0-1------1-1-1-0-------------0-----0---0----|
|-0--0----0-0--0---0-0------0-0-0-0-------------0-----0---0----|
|-2-----2---2----2---2--------2---2-------------------2--------|
|-2-----2---2----2---3------------3-------------------3--------|
|-0-----0---0----0----------------3----------------------------|
|
|           ~~
| |---3---|          |----3-----| |-----------3-----------|
| E +E.   S Q        S  S S S S S S  +S    +S  +S    +S  +S
|--------------------------------------------------------------|
|-7-(7)---------------------5-----7--(7)b8-(7)-(7)b8-(7)-(7)b8-|
|-----------7-----------5-------5------------------------------|
|-----------7--------5-----------------------------------------|
|---------9----------------------------------------------------|
|--------------------------------------------------------------|


                                 3/4
  |--3---| |--3---| |--3---|
  E. S S S E. S S S E. S S S Q     Q   Q   Q
|-3----3---0----0---0--0-0---2--|-^0--^0--^2---*|
|-3----3---0----0---2--2-2---3--|-^0--^2--^3---*|
|-4--4-4---0--0-0---2--2-2---4--|-^0--^2--^4---*|
|-5--5-5---2--2-2---2--2-2---4--|-^2--^2--^4---*|
|-5--5-----2--2-----0--0-0---2--|-^2--^0--^2---*|
|-3--3-----0--0-----------------|-^0-----------*|
|
| W                                W
|-------------------------------|--------------*|
|-------------------------------|--------------*|
|-------------------------------|--------------*|
|-------------------------------|--------------*|
|-------------------------------|--------------*|
|-------------------------------|--------------*|


Duration Legend
---------------
W - whole; H - half; Q - quarter; E - 8th; S - 16th; T - 32nd; X - 64th; a - acciaccatura
+ - note tied to previous; . - note dotted; .. - note double dotted


Tablature Legend
----------------
 h   - hammer-on
 p   - pull-off
 b   - bend
 pb  - pre-bend
 r   - bend release (if no number after the r, then release immediately)
 /\  - slide into or out of (from/to "nowhere")
 s   - legato slide
 S   - shift slide
  - natural harmonic
[n]  - artificial harmonic
n(n) - tapped harmonic
 ~   - vibrato
 tr  - trill
 T   - tap
 TP  - trem. picking
 PM  - palm muting
\n/  - tremolo bar dip; n = amount to dip
 \n  - tremolo bar down
 n/  - tremolo bar up
/n\  - tremolo bar inverted dip
 =   - hold bend; also acts as connecting device for hammers/pulls
 <>  - volume swell (louder/softer)
 x   - on rhythm slash represents muted slash
 o   - on rhythm slash represents single note slash

Misc Legend
-----------
 |  - bar
||  - double bar
||o - repeat start
o|| - repeat end
*|  - double bar (ending)
 :  - bar (freetime)
 $  - Segno
 &  - Coda
Tempo markers -  = BPM(8/16=s8/s16), where s8 = swing 8ths, s16 = swing 16ths

            
            
Suggest correction
Creating personal tab
Creating personal tab
You can edit any tab online and save it as your Personal.

You can edit, replace or remove any tab part or add personal notes – all changes will be seen only by you.

Personal tabs can be accessed anytime from any device, even offline.
Learn more »
Give kudos to tab author, rate the tab!
1 2 3 4 5
comments
print report bad tab
guest
You may want to rate the tab now too:
select rating
Wanna post a correction for this tab? Suggest correction