Oops, an error
Loading. Please wait.

Make You Better bass

874 views 12 this week
no commentswrite comment
1 2 3 4 5
x 3
add to favorites
×
Save as Personal and add changes to this tab that will be seen only by you. Learn more ›
×
You can save this tab as Personal to edit and correct it or add notes. All changes will be seen only by you. Learn more »
launch autoscroll
font size
0
reset
guitar tuner
edit
Autoscroll
slow
fast
+/-
esc
set tempo
stop
Author
Difficulty
The Decemberists – Make You Better – Bass Tab

NO BASS IN THE INTRO

VERSE - AFTER "BETTER"
G|--------|--------|--------|--------|
D|--------|--------|--------|--------|  X3
A|22222222|55555555|--------|55555555|
E|--------|--------|33333333|--------|

G|--------|--------|--------|--------|
D|--------|-----245|5555542-|-----42-|  X2
A|22222424|55555---|-------5|55555--5|
E|--------|--------|--------|--------|

CHORUS
G|--------|--------|--------|--------|--------|--------|22222222|22222222|
D|--------|-----245|55555542|------2-|55555542|------2-|--------|--------| X2
A|00000000|00000---|--------|5-4-5---|--------|5-4-5---|--------|--------|
E|--------|--------|--------|--------|--------|--------|--------|--------|

AFTER-CHORUS 
G|00000000|00000000|
D|--------|--------|
A|--------|--------|
E|--------|--------|

REPEAT ALL OF ABOVE ONCE

G|--------|--------|--------|--------|
D|--------|--------|--------|--------|  X6
A|2222245-|-----245|55555420|00000000|
E|-------3|33333---|--------|--------|

G|--------|--------|
D|--------|--------|
A|00000000|00000000|
E|--------|--------|

CHORUS

AFTER CHORUS X2

VERSE (SIMPLE)X1

THEN
G|--------|--------|--------|--------|--------|
D|--------|--------|--------|--------|--------| 
A|22222222|55555555|--------|--------|2-------|
E|--------|--------|33333333|33333333|--------|

This Tab doesn't include all of the complexities of the song, but it gives a basic idea of the song.
I am not totally sure that it is all correct, but hopefully it can help!
______________________________________
P.S. You can play the main notes (not the transitions) in any pattern that you best feel fits the song.

            
            
Suggest correction
Creating personal tab
Creating personal tab
You can edit any tab online and save it as your Personal.

You can edit, replace or remove any tab part or add personal notes – all changes will be seen only by you.

Personal tabs can be accessed anytime from any device, even offline.
Learn more »
Give kudos to tab author, rate the tab!
1 2 3 4 5
comments
print report bad tab
guest
You may want to rate the tab now too:
select rating
Wanna post a correction for this tab? Suggest correction