Oops, an error
Loading. Please wait.

Crow Jane tab

version 2
version 2

Whole song

17,344 views 15 this week
6 commentsread comments
1 2 3 4 5
x 6
add to favorites
×
Save as Personal and add changes to this tab that will be seen only by you. Learn more ›
×
You can save this tab as Personal to edit and correct it or add notes. All changes will be seen only by you. Learn more »
launch autoscroll
font size
0
reset
how to read this tab
guitar tuner
edit
Autoscroll
slow
fast
+/-
esc
set tempo
stop
Author
Tabbers playing skills
advanced +
Band/Artist: Derek Trucks Band
Song Title: Crow Jane
Album: Songlines (2006)
Transcribed by: aig91
Tuning: Open E 
1 = e
2 = B
3 = G#
4 = E
5 = B
6 = E



|  h = hammer on
|  p = pull off
|  b = full bend
|  ^ = half bend/partial bend
|  r = release bend
|  / = slide up
|  \ = slide down
|  x = muted note
|  ~ = vibrato
|  # = slightly sharp



Intro:
 
  0:00
|--------------------------11------11------11------------------------|
|------------------11--14------14------14---------------------9--12--|
|--------------11------------------------------------------9---------|
|----------11-------------------------------------------9------------|
|------11--------------------------------------------9---------------|
|-/11--------------------------------------------/9------------------|


|--9------9----------------------------(9)-----4-----4---------------|
|-----12-----12--9--11h12--11--9h12p9----------4--7--4---------------|
|--------------------------------------------------------------------|
|--------------------------------------------------------------------|
|---------------------------------------------------------------11---|
|----------------------------------------------4-----------/11-------|


|-------------11-------------4--4--4----||
|---------14------14p11------7--4--4----||
|-----11---------------------4----------||
|-11------------------------------------||
|---------------------------------------||
|----------------------------4----------||


   0:13
|--7---7--4--------------------------11---------------9--------------|
|--4---4--4--7---------------14--11--11--14------12---9---12--12--12-|
|------------4---------------------------11------9--------9---9---9--|
|------------------------11------------------------------------------|
|--------------------------------------------------------------------|
|--4---4--4--4------/11--------------11--11------9----9---9---9---9--|


|------------9----------------4--4---------------------11------------|
|-12--x--12--9--12------7--4--4--7-------------14--11--11--14--------|
|-9------9------9-------4--4-------------------------------11--------|
|------------------------------------------11------------------------|
|--------------------------------------------------------------------|
|-9---x--9---9--9-------4-----4--4----/11--------------11--11--------|


|-----------4--4---------------------11--------||
|----7--4---4--7-------------14--11--11--14----||
|----4--4--------------------------------11----||
|------------------------11--------------------||
|----------------------------------------------||
|-4---------4--4----/11--------------11--11----||



Verse 1: 

   0:27
|--7---7--4------------------------11----------------9-------------|
|--4---4--4--7-------------14--11--11--14----12--9---9----12--12---|
|------------4-------------------------11----9---9--------9---9----|
|----------------------11------------------------------------------|
|------------------------------------------------------------------|
|--4---4--4--4----/11--------------11--11----9---9---9----9---9----|


|-------------9------------------4------------------------11-------|
|-12--12------9--12-------7--4---4--7-------------14--11--11--14---|
|-9---9----------9--------4--4------4-------------------------11---|
|---------------------------------------------11-------------------|
|------------------------------------------------------------------|
|-9---9----9-----------4---------4--4----/11--------------11--11---|


|----------4------------------------11--------||
|----7--4--4--7-------------14--11--11--14----||
|----4--4-----4-------------------------11----||
|-----------------------11--------------------||
|---------------------------------------------||
|-4--------4--4----/11--------------11--11----||
   
   
   0:41
|--7---7--4------------------------11----------------9-------------|
|--4---4--4--7-------------14--11--11--14----12--9---9----12--12---|
|------------4-------------------------11----9---9--------9---9----|
|----------------------11------------------------------------------|
|------------------------------------------------------------------|
|--4---4--4--4----/11--------------11--11----9---9---9----9---9----|


|-------------9---------------4------------------------11----------|
|-12--12------9--12----7p-4---4--7-------------14--11--11--14------|
|-9---9----------9-----4--4------4-------------------------11------|
|------------------------------------------11----------------------|
|------------------------------------------------------------------|
|-9---9----9-----------4------4--4----/11--------------11--11------|


|-----4-----4-------------------------11-------||
|--7--4--7--4---7-------------14--11--11--14---||
|--4-----4------4-------------------------11---||
|-------------------------11-------------------||
|----------------------------------------------||
|--4--4--4--4---4----/11--------------11--11---||


   0:55
|--4---4------------------------11---------------------------------|
|--4---4--7-------------14--11------14------12----12----12---------|
|---------4---------------------------------9-----9-----9----------|
|-------------------11---------------------------------------------|
|------------------------------------------------------------------|
|--4---4--4----/11--------------------------9-----9-----9----------|


|-----------------------------------4------------------------11----|
|-11h12p12--9------9----------7--4-----7-------------14--11------14|
|--------------10--------------------------------------------------|
|--------------------------4---------------------11----------------|
|------------------------------------------------------------------|
|-----------------------4------------------/11---------------------|


|-------4-------------------------11--------------4----------------|
|-7--4--4--7--------------14--11------14----7--4--4--7-------------|
|-4--4-----4--------------------------------4--4-----4-------------|
|--------------------11--------------------------------------------|
|------------------------------------------------------------------|
|-4--4--4--4----/11-------------------------4--4--4--4-------------|


|------------------11--------||
|----------14--11------14----||
|----------------------------||
|------11--------------------||
|----------------------------||
|-/11------------------------||



Slide guitar solo:

  1:12
|-7////9--9--7-----------------------------------------------------|
|--------------------7/9~------------------------------------------|
|-----------------7---------10-------------------------------------|
|-------------------------------11--11\9\7------/9--9-9--7---------|
|------------------------------------------9----------------9--7---|
|-----------------------------------------------------------------9|


|----------4--/7-6-7-6----------------------------------||
|------/4---------------9--7----------------------------||
|-----------------------------10\7--7\5\3\0--/5\3\0-----||
|-------------------------------------------------------||
|-------------------------------------------------------||
|-7-----------------------------------------------------||



Verse 2:

   1:25
|------------------------------------11----------------------------|
|--7-----------7-------------14--11------14-------12--------12-----|
|--4--4-----4------------------------------------------------------|
|--------4---------------11----------------------------------------|
|------------------------------------------------------------------|
|--4----------------/11---------------------------9---------9------|


|--------------------------------4-----------------------11--------|
|--9--11h12--11--9--------7p-4---4--7-------------14-----11--14----|
|-------------------10----4--4------4-------------11---------11----|
|---------------------------------------------11-------------------|
|------------------------------------------------------------------|
|-------------------------4------4--4----/11-----------------------|


|---------4------------------------11--------||
|--7--4---4--7--------------14-----11--14----||
|--4--4------4--------------11---------11----||
|----------------------11--------------------||
|--------------------------------------------||
|--4--4---4--4----/11------------------------||


   1:38
|---------4--------------------------------------------------------|
|--7--4---4--7--------------14-----14--14-----------------11h12--9-|
|--4--4------4--------------11-----11--11--------------------------|
|-----------------------11-----------------------------------------|
|------------------------------------------------------------------|
|--4--4---4--4-----/11---------------------------------------------|


|---------------4-----------------------11------------------4------|
|--------7--4---4--7--------------14----11--14-----7--4-----4--7---|
|-10-----4--4------4--------------11--------11-----4--4--4-----4---|
|----------------------------11------------------------------------|
|------------------------------------------------------------------|
|--------4--4---4--4----/11------------------------4--4-----4--4---|


|----------------11---------------4----------------------11-------||
|----------14----11--14----7--4---4--7-------------14----11--14---||
|----------11--------11----4--4------4-------------11--------11---||
|------11--------------------------------------11-----------------||
|-----------------------------------------------------------------||
|-/11----------------------4--4---4--4----/11---------------------||


(Keyboard solo)



Verse 3: 

   2:08
|---------4----------------------11----------------9---------------|
|--7--4---4--7-------------14----11--14----12--9---9----12----12---|
|--4--4------4-------------11--------11----9---9--------9-----9----|
|----------------------11------------------------------------------|
|------------------------------------------------------------------|
|--4--------------/11----------------------9-----------------------|


|-------------------4----------------------11------------------4---|
|------------7--4---4--7-------------14----11--14-----7--4-----4--7|
|-10---------4--4------4-------------11--------11-----4--4--4-----4|
|-----11-----------------------------------------------------------|
|------------------------------------------------------------------|
|------------4--------------/11-----------------------4------------|


|---------------11-------||
|---------14----11--14---||
|---------11--------11---||
|------x-----------------||
|------------------------||
|-/11--------------------||


   2:21
|---------4--------------------------------------------------------|
|--7--4---4--7--------------------------------------------11h12--11|
|--4--4------4-----------------------------------------------------|
|------------------------------------------------------------------|
|------------------------------------------------------------------|
|--4---------------------------------------------------------------|


|--------------------------------------------11--11-------------4--|
|-9--x--9-------7----7--7--------------14----14--14----7--4-----4--|
|------------4-----------------------------------------4--4--4-----|
|----------------------------------11------------------------------|
|------------------------------------------------------------------|
|------------4---------------/11-----------------------4-----------|


|--------------------11---------------4--------------------11------|
|-7-------------14---11--14----7--4---4--7-------------14--11--14--|
|-4----------------------11----4--4------4-------------11------11--|
|------------------------------------------------------------------|
|------------------------------------------------------------------|
|------/11---------------------4--------------/11------------------|


|--------4----------------------11---------------4-----------------|
|-7--4---4--7-------------14----11--14--------7--4--7--------------|
|-4--4------4-------------11--------11--------4-----4--------------|
|---------------------11--------------------------------------11---|
|------------------------------------------------------------------|
|-4--------------/11-----------------------4-------------/11-------|


|-------11--------||
|-14----11--14----||
|-11--------11----||
|-----------------||
|-----------------||
|-----------------||



Slide guitar solo 2: 

  2:41
|------------------------------------------------------------------|
|-/16----14--14--12------/16\14\12--14--14--12--14--12------12--9~-|
|-------------------------------------------------------12---------|
|------------------------------------------------------------------|
|------------------------------------------------------------------|
|------------------------------------------------------------------|


|-------------/19//21----19----------------------------------------|
|-9~\7-----------------------21--21\19\16\14--16\14----------------|
|------7--------------------------------------------12--------14/16|
|---------------------------------------------------------12-------|
|------------------------------------------------------------------|
|------------------------------------------------------------------|


|-16--16~----16--14------------------------------------------------|
|--------------------16\14\12----/14~--/16--14/16--14/16--14/16----|
|------------------------------------------------------------------|
|------------------------------------------------------------------|
|------------------------------------------------------------------|
|------------------------------------------------------------------|


|-------------------------------------------------------------||
|-14/16--14/16--14/16--16\14\12/14---12--11-------------------||
|--------------------------------------------12--12~~--/17----||
|-------------------------------------------------------------||
|-------------------------------------------------------------||
|-------------------------------------------------------------||



Outro: 

   3:03
|--------4-----4------4-----4--4--4-----4--------------------------|
|--7p-4--4--7--4------4--7--4--4--4--7--4--7-----------------------|
|--4--4-----4------------4-----------4-----4-----------------------|
|-----------------------------------------------4--4--4--2---------|
|-----------------------------------------------------------4------|
|--4------------------4--------------------------------------------|


|------------4-----4-------7--4-----4--4-----4---------------------|
|------------4--7--4-------4--4--7--4--4--7--4---------------------|
|-----3^p0------4----------------4--------4------------3^--0--0----|
|--4------------------------------------------------4------------4-|
|------------------------------------------------------------------|
|--------------------------4-----4-----4-----4---------------------|


|-----------------7--4--4-----4-----4------------------------------|
|-----------------4--4--4--7--4--7--4--4------4--4--7--4--7--4--7--|
|--------------------------4-----4-----4------4--4--4--4--4--4--4--|
|-4--2--4--4-------------------------------------------------------|
|------------------------------------------------------------------|
|-----------------4------------------------------------------------|


|------------------------------------------------------------------|
|-4------4---4--4--7--4--4--7--7---4--4--4--7--4-------------------|
|-4------4---4--4--4--4--4--4--4---4--4--4--4--4---3--0------------|
|--------------------------------------------------------4--2--4--4|
|------------------------------------------------------------------|
|------------------------------------------------------------------|


|-4--7--4-----4------/14#------------------------------------------|
|-4--4--4--7--4-------------16--14--12-----------------------------|
|----------4----------------------------12---7\5--7\5--3--5-----3h5|
|------------------------------------------------------------4-----|
|------------------------------------------------------------------|
|------------------------------------------------------------------|


|------------------------------------------------------------------|
|------------------------------------------------------------------|
|-----------2--2h3p2-----2-----2p0-----2------------2--2--4--------|
|-4------4------------4-----4-------1---------1--4-----------1--4--|
|------------------------------------------------------------------|
|------------------------------------------------------------------|


|------------------------------------------||
|------------------------------------------||
|-0h2--0h2--0h2----------------------------|| FADE
|----------------1--4----------------------|| OUT
|----------------------4-------------------||
|-----------------------------/6---/6\4----||

            
            
Suggest correction
Creating personal tab
Creating personal tab
You can edit any tab online and save it as your Personal.

You can edit, replace or remove any tab part or add personal notes – all changes will be seen only by you.

Personal tabs can be accessed anytime from any device, even offline.
Learn more »
comments
print report bad tab
6 comments total. Showing first comments. show 1 bad comment
+1 reply
LedDaveZeppelin 7,951 Feb 19, 2009 08:23 PM

Very nice. I love playing this now...Now that I know how.

+2 reply
aig91 4,357 Apr 15, 2009 02:41 PM

1) Derek Trucks' guitar is always tuned to Open E. I'm just trying to stay true to the way he's playing it.
2) The song is in Ab, not A. Writing it out in A would make it less accurate.
3) He DOES use a slide for the guitar solo. There is no fuzz or wah. The only musician that uses a wah in that song is the keyboardist for the keyboard solo. NOT the guitar solo.
4) Watch this if you're unsure: http://www.youtube.com/watch?v=eC01c7VuYjM

guest
You may want to rate the tab now too:
select rating
Wanna post a correction for this tab? Suggest correction