Oops, an error
Loading. Please wait.

Assistant To The Regional Manager bass

version 1
version 1

Whole song

8,583 views 3 this week
1 commentread comment
1 2 3 4 5
x 4
add to favorites
×
Save as Personal and add changes to this tab that will be seen only by you. Learn more ›
×
You can save this tab as Personal to edit and correct it or add notes. All changes will be seen only by you. Learn more »
launch autoscroll
font size
0
reset
guitar tuner
edit
Autoscroll
slow
fast
+/-
esc
set tempo
stop
The Devil Wears Prada-Assistant To The Regional Manager

Bassist: Andy Trick
Length: 3:37
Tuning: Drop B ( B Gb B E )
___________________________________________________________

* I learned this song back when I had guitar pro free trial for
15 days so all the credit goes to whoevers bass tab this is but 
I am not exactly sure that this is how they tabbed it but it is 
close or exactly how they tabbed it.

*I did do the duration on this tab so if you don't know alot
about that just ignore the letters above the numbers and blank 
spaces and it will be like a regular tab.
_________________________________________________________________

The Devil Wears Prada-Assistant To The Regional Manager

4 string drop B bass tuning ( low to high B Gb B E )

bpm ( beats per minute ) = 151

dynamic marking = fff = very very loud
------------------------------------------

A. Intro (0:00) Guitar Starts

4/4
    W                W                W                W
E |----------------|----------------|----------------|----------------|
B |----------------|----------------|----------------|----------------|
Gb|----------------|----------------|----------------|----------------|
B |----------------|----------------|----------------|----------------|

  Q  Q  Q  Q    Q  Q  Q  Q    E E E E E E E E   E E E E E E E E 
|-------------|-------------|-----------------|-----------------|
|-------------|-------------|-----------------|-----------------|
|-------------|-------------|-----------------|-----------------|
|-0--0--0--0--|-0--0--0--0--|-0-0-0-0-0-0-0-0-|-0-0-0-0-0-0-0-0-|

   E E E E E E E E   E E E E E E E E   E E E E E E E E   E E E E E E E E 
|------------------|-----------------|-----------------|-----------------|
|.-----------------|-----------------|-----------------|-----------------|
|.-----------------|-----------------|-----------------|-----------------|
|--8-8-8-8-8-8-8-8-|-8-8-8-8-8-8-8-8-|-5-5-5-5-5-5-5-5-|-5-5-5-5-5-5-5-5-|

  E E E E E E E E   E E E E E E E E   E E E E E E E E   E E E E E E E E 
|-----------------|-----------------|-----------------|------------------|
|-----------------|-----------------|-----------------|-----------------.|
|-----------------|-----------------|-----------------|-----------------.|
|-0-0-0-0-0-0-0-0-|-0-0-0-0-0-0-0-0-|-0-0-0-0-0-0-0-0-|-0-0-0-0-0-0-0-0--|


B. Verse (0:40)

  W                S E. Q  S E. Q    S S S S E S S S S Q.
|----------------|-----------------|----------------------|
|----------------|-----------------|----------------------|
|----------------|-----------------|----------------------|
|----------------|-0-8--8--0-3--3--|-0-0-0-0---0-0-0-0----|

  S  S  S S  S  S S  S   E E Q      S S S S E S S S S Q.
|---------------------------------|----------------------|
|---------------------------------|----------------------|
|-5-[5]---5-[5]---5-[5]--8-7-5----|----------------------|
|---------------------------------|-0-0-0-0---0-0-0-0----|

  S E. Q  S E. Q    S S S S E S S S S Q.   S  S  S S  S  S S  S   E E Q
|-----------------|----------------------|--------------------------------||
|-----------------|----------------------|--------------------------------||
|-----------------|----------------------|-5-[5]---5-[5]---5-[5]--8-7-5---||
|-0-8--8--0-3--3--|-0-0-0-0---0-0-0-0----|--------------------------------||

C. Chorus (0:53)

   S E. Q  S E. Q    H      E E S E.   S E. Q  S E. Q    H      E E S E.
|------------------|-----------------|-----------------|-----------------|
|.-----------------|-----------------|-----------------|-----------------|
|.-----------------|-----------------|-----------------|-----------------|
|--0-0--0--0-0--0--|--------0-0-0-0--|-0-0--0--0-0--0--|--------0-0-0-0--|
 
  S E. Q  S E. Q    H      E E S E.   S E. Q  S E. Q    H      E E S E.
|-----------------|-----------------|-----------------|------------------|
|-----------------|-----------------|-----------------|-----------------.|
|-----------------|-----------------|-----------------|-----------------.|
|-8-8--8--8-8--8--|--------8-8-8-8--|-5-5--5--5-5--5--|--------5-5-5-5---|

D. Pre Verse (1:19)

  Q  Q  Q  Q    Q  Q  Q  Q    S S S S S S S S S S S S S S S S 
|-------------|-------------|---------------------------------|
|-------------|-------------|---------------------------------|
|-------------|-------------|---------------------------------|
|-0--0--0--0--|-0--0--0--0--|-0-0-0-0-0-0-0-0-0-0-0-0-0-0-0-0-|

  S S S S S S S S S S S S Q
|------------------------------||
|------------------------------||
|------------------------------||
|-0-0-0-0-0-0-0-0-0-0-0-0-0----||

E. Verse (1:26)

   E E E E E E E E   S S S S S S S S S S S S S S S S   E E E E E E E E 
|------------------|---------------------------------|-----------------|
|.-----------------|---------------------------------|-----------------|
|.-----------------|---------------------------------|-----------------|
|--5-5-5-5-8-8-8-8-|-0-0-0-0-0-0-0-0-0-0-0-0-0-0-0-0-|-5-5-5-5-8-8-8-8-|

  S S E S S E S S E S S E
|--------------------------|
|-------------------------.|
|-------------------------.|
|-0-0-0-0-0-0-0-0-0-0-0-0--|

F. Breakdown (1:39)

  W                 S S E S S E S S E S S E   S S E S S E S S E Q
|----------------|--------------------------|-----------------------|
|----------------|.-------------------------|-----------------------|
|----------------|.-------------------------|-----------------------|
|----------------|--0-0-0-0-0-0-0-0-0-0-0-0-|-0-0-0-0-0-0-0-0-0-----|

  H      S S E S S E   E E E E E E  E E E E E E
|--------------------|--------------------------|
|--------------------|-0h7h8-0h7h10-0h5h7-0h3h5-|
|--------------------|--------------------------|
|--------0-0-0-0-0-0-|--------------------------|
                      |----------12.8----------|
                                                 
  S S E S S E S S E S S E   S S E S S E S S E Q     H      S S E S S E
|-------------------------|-----------------------|--------------------|
|-------------------------|-----------------------|--------------------|
|-------------------------|-----------------------|--------------------|
|-0-0-0-0-0-0-0-0-0-0-0-0-|-0-0-0-0-0-0-0-0-0-----|--------0-0-0-0-0-0-|

  E E E E E E E E E E E E    W           W          Q. Q. Q    Q. Q. Q
|--------------------------|----------|-----------|----------|----------||
|-0h5h7-0h5h8-0h5h7-0h3h5-.|----------|-----------|----------|----------||
|-------------------------.|----------|-----------|----------|----------||
|--------------------------|-0--------|-[0]-------|-0--0--0--|-0--0--0--||
 |---------12.8----------|

G. Bridge (2:14)

  Q H.          W                W                W 
|-------------|----------------|----------------|----------------|
|-------------|----------------|----------------|----------------|
|-------------|----------------|----------------|----------------|
|-0-----------|----------------|----------------|----------------|

   E E E E E E E E   E E E E E E E E   E E E E E E E E   E E E E E E E E 
|------------------|-----------------|-----------------|-----------------|
|.-----------------|-----------------|-----------------|-----------------|
|.-----------------|-----------------|-----------------|-----------------|
|--0-0-0-0-0-0-0-0-|-0-0-0-0-0-0-0-0-|-3-3-3-3-3-3-3-3-|-3-3-3-3-3-3-3-3-|

  E E E E E E E E   E E E E E E E E   E E E E E E E E   E E E E E E E E 
|-----------------|-----------------|-----------------|------------------|
|-----------------|-----------------|-----------------|-----------------.|
|-----------------|-----------------|-----------------|-----------------.|
|-0-0-0-0-0-0-0-0-|-0-0-0-0-0-0-0-0-|-5-5-5-5-5-5-5-5-|-8-8-8-8-8-8-8-8--|

H. Verse (2:47)

  W                S E. Q  S E. Q    S S S S E S S S S Q.
|----------------|-----------------|----------------------|
|----------------|-----------------|----------------------|
|----------------|-----------------|----------------------|
|----------------|-0-8--8--0-3--3--|-0-0-0-0---0-0-0-0----|

  S  S  S S  S  S S  S  E E Q      S S S S E S S S S Q.   S E. Q  S E. Q
|--------------------------------|----------------------|-----------------|
|--------------------------------|----------------------|-----------------|
|-5-[5]---5-[5]---5-[5]-8-7-5----|----------------------|-----------------|
|--------------------------------|-0-0-0-0---0-0-0-0----|-0-8--8--0-3--3--|

  S S S S E S S S S Q.   S  S  S S  S  S S  S  E E Q      E E Q  Q   Q 
|----------------------|--------------------------------|----------------||
|----------------------|--------------------------------|----------------||
|----------------------|-5-[5]---5-[5]---5-[5]-8-7-5----|-8-7-5----------||
|-0-0-0-0---0-0-0-0----|--------------------------------|--------8---3---||

I. Pre Breakdown (3:02)

  W                E  E E E E E E E    W                E  E E E E Q.
|----------------|-------------------|----------------|---------------|
|----------------|-------------------|----------------|---------------|
|----------------|-------------------|----------------|---------------|
|----------------|----0-3-2-1-0-1-2--|----------------|----0-3-2-0----|

J. Breakdown (3:09)

   S E. S E E E. Q    E E E E S E. E E    S E. S E E E. Q
|-------------------|-------------------|------------------|
|.------------------|-------------------|------------------|
|.------------------|-------------------|------------------|
|--0-0--0-0---0--0--|---0---0---0--0----|-0-0--0-0---0--0--|
                 .                                      .

  E E E E S S S S Q
|------------------------|
|-----------------------.|
|-----------------------.|
|---0---0-0-0-0-0-12\----|

  S E  S  S E  E  E. E  E    E E E E S E. E  E    S E  S  S E  E  E. E  E
|--------------------------|--------------------|--------------------------|
|--------------------------|--------------------|--------------------------|
|--------------------------|--------------------|--------------------------|
|-1-1-[1]-1-1-[1]-1--1-[1]-|---1---1---1--1-[1]-|-1-1-[1]-1-1-[1]-1--1-[1]-|

  E  E E E E E E E     S E. S E E E  Q    E E E E S E. E E  
|-------------------||------------------|-------------------|
|-------------------||------------------|-------------------|
|-------------------||------------------|-------------------|
|----0-3-2-1-0-1-2--||-0-0--0-0---0--0--|---0---0---0--0----|
                                     .

  S E. S E E E  Q    E E E E S S S S Q 
|------------------|----------------------||
|------------------|----------------------||
|------------------|----------------------||
|-0-0--0-0---0--0--|---0---0-0-0-0-0-0----||
                .                                    

______________________________________________________________

Duration Legend
________________

W = whole note
H = half note
Q = quarter note
E = eigth note
S = sixteenth note
T = thirty second note
X = sixty fourth note
. = dotted note ( dot beside duration )
|-n-| = tuplets
. = staccato note ( dot underneath a note )
*any duration mark above an empty space means a rest


Tablature Legend 
_________________

[n] = tied note
x = dead note
g = grace note
(n) = ghost note
> = accentuded note
NH = natural harmonic
AH = artificial harmonic
TH = tapped harmonic
SH = semi harmonic
PH = pitched harmonic
h = hammer on
p = pull off
b = bend
br = bend realease
pb = pre bend
pbr = pre bend realease
brb = bend realease bend
\n/ = tremelo bar dip
\n = tremelo bar dive
-n/ = tremelo bar realease up
/n\ = tremelo bar inverted dip
/n = tremelo bar return
-\n = tremelo bar release down
S = shift slide
s = legato slide
/ = slide into from below or out of backwards
\ = slide into from above or out of downwards
~ = vibrato
W = wide vibrato
tr = trill
TP = tremelo picking 
T = tapping 
S = slap
P = pop
< = fade in
^ = pick up
v = pick down
___________________________________________________

The Devil Wears Prada-Assistant To The Regional Manager Lyrics

These writings are to those who have wept.
These writings are to those who haven't
Looked deeply enough into the correct resolution.
Wrong again but stronger now, we can face this.
Fight life with life.
All glory to the one in existence.
Bring upon your name, your grace, your everything.
Hold hands and stare into the circle.
What are we looking at? 
Rumors and rumors and rumors.
Assembly: Disintegration.
perish.
Tombstones serve as mirrors and the graves are infinite.
Take a look throiugh the lens and through your eyes.
End the partitioning.
Wrong again but stronger now, we can face this.
Fight life with life.
Enemies, We'll go for your throat.

__________________________________________________________

That's it please rate and comment
Corrections are welcome 

Enjoy!

^SiVART^


            
            
Suggest correction
Creating personal tab
Creating personal tab
You can edit any tab online and save it as your Personal.

You can edit, replace or remove any tab part or add personal notes – all changes will be seen only by you.

Personal tabs can be accessed anytime from any device, even offline.
Learn more »
comments
print report bad tab
1 comment total.
0 reply
codysweeny 10 Sep 21, 2013 04:36 PM

Great tab, I think the timing is a little off but that might be me.

guest
You may want to rate the tab now too:
select rating
Wanna post a correction for this tab? Suggest correction