Oops, an error
Loading. Please wait.

Assistant To The Regional Manager tab

version 2
version 2

Whole song

12,337 views 1 this week
8 commentsread comments
1 2 3 4 5
x 4
add to favorites
×
Save as Personal and add changes to this tab that will be seen only by you. Learn more ›
×
You can save this tab as Personal to edit and correct it or add notes. All changes will be seen only by you. Learn more »
launch autoscroll
font size
0
reset
how to read this tab
guitar tuner
edit
Autoscroll
slow
fast
+/-
esc
set tempo
stop
Author
Song:Assistant to the Regional Manager

Band:The Devil Wears Prada

CD:With Roots Above and Branches Below

Tabbed By:BILLYutm

check it out and PLEASE comment and rate, And if you have corrections, which there 
will be, Just leave a
and I'll fix it.

but i'm 98% sure this is correct i tabbed this in drop D so you don't have to tune your
guitar just to play this song then tune it back to play another...anyway ENJOY!!!!!!!!!!!!!!

Tuning: Drop D

Intro: WIth Delay

e|------------------|
B|--10----7---7-----|
G|-----7-9------9-7-|
D|9----------9------|
A|------------------|
D|------------------|


Little verse thing :) x2

e|-----------------------------------------------------------|
B|-----------------------------------------------------------|
G|-----------------------------------------------------------|
D|-----------------------------------------------------------|
A|---------------------------------------------5-5-5--9-7-5--|
D|000-12-00-11-11--55-5-00-0--000-12-00-11-11---5-5-5--------|
  ...    ..        .    .     ...    ..         . . .

Clean vox part: Love Jeremy's voice here

e|--------------------------------------------------------------|
B|--------------------------------------------------------------|
G|--------------------------------------------------------------|
D|--------------------------------------------------------------|
A|-00-0-00-0--00-0-00-X2-55-5-55-5--55-5-55--33-3-33-3--33-3-33-|
D|-00-0-00-0--00-0-00----55-5-55-5--55-5-55--33-3-33-3--33-3-33-|
   .    .     .. . ..    .    .     .. . ..  .    .     .. . ..


I'm SOOOOOO sorry but i don't know the sweeping part, PLEASE HELP!!!!!!

Bridge to next verse
e|---------------------------|
B|---------------------------|
G|---------------------------|
D|---------------------------|
A|0-0-0-0-0-0-0-0------------|
D|0-0-0-0-0-0-0-0-PICK SLIDE-|

not really sure about this part either:(

e|-----------------------------------------------------------------|
B|-----------------------------------------------------------------|
G|-----------------------------------------------------------------|
D|-----------------------------------------------------------------|
A|--5-5-3--6--6-5--0000000000000000---second time--000-000-000-000-|
D|3--3----6--6-----0000000000000000----------------000-000-000-000-|
  .  .    .  .     ................                ... ... ... ...

Love the Keys here
e|----------------------------------------------------------------|
B|----------------------------------------------------------------|
G|----------------------------------------------------------------|
D|----------------------------------------------------------------|
A|000-000-000-000-000-000-000---000-000-0h8h12-0h812-0h7h10-0h5h8-|
D|000-000-000-000-000-000-000---000-000---------------------------|
  ... ... ... ... ... ... ...   ... ...

e|----------------------------------------------------------------|
B|----------------------------------------------------------------|
G|----------------------------------------------------------------|
D|----------------------------------------------------------------|
A|000-000-000-000-000-000-000---000-000-0h7h10-0h7h10-0h5h8-0h4h7-|
D|000-000-000-000-000-000-000---000-000---------------------------|
  ... ... ... ... ... ... ...   ... ...
this part x2 except the last time

e|----------------------------------------------------------------------|
B|----------------------------------------------------------------------|
G|----------------------------------------------------------------------|
D|----------------------------------------------------------------0-----|
A|000-000-000-000-000-000-000---000-000-0h7h10-0h7h10-0h5h8-0h4h5-0hold-|
D|000-000-000-000-000-000-000---000-000---------------------------0-----|
  ... ... ... ... ... ... ...   ... ...

With delay
e|------------------------------------------------17--17-|
B|15--1515--1515--18--1818----18--15--1515--15-----------|
G|--17----17----17--17----1717--17--17----17--1717--17---|
D|-------------------------------------------------------|
A|-------------------------------------------------------|
D|-------------------------------------------------------|

e|-------------------------------------------------------------------|
B|-------------------------------------------------------------------|
G|-------------------------------------------------------------------|
D|-------------------------------------------------------------------|
A|0000000000000000-333333333333333-0000000000000000-5555555588888888-|
D|0000000000000000-333333333333333-0000000000000000-5555555588888888-|

THEN...

e|-------------------------------------------------------------------|
B|-------------------------------------------------------------------|
G|-------------------------------------------------------------------|
D|-------------------------------------------------------------------|
A|0000000000000000-333333333333333-0000000000000000-5555555588888888-|
D|0000000000000000-333333333333333-0000000000000000-5555555588888888-|
  ................ ............... ................

The first verse repeated but with an exta 8/12 10 8 at the end and then...
e|--------------------------------------------|
B|--------------------------------------------|
G|--------------------------------------------|
D|--------------------------------------------|
A|8-3---------------0321012--------------0320-|
D|8-3--11-1~-11-1~--0321012--11-1~-11-1~-0320-|
       .     .               .     .
Breakdown
e|------------------------------------------|
B|------------------------------------------|
G|------------------------------------------|
D|------------------------------------------| X2
A|00-00-0-0--0-0-00-0--00-00-0-0--0-0-00000-|
D|00-00-0-0--0-0-00-0--00-00-0-0--0-0-00000-|
  .. .. . .  . . .. .  .. .. . .  . . .....

e|------------------------------------------|
B|------------------------------------------|
G|------------------------------------------|
D|------------------------------------------| these are 1's
A|11-11-1-1--1-1-11-1--11-11-1-1--1-1-11111-|
D|11-11-1-1--1-1-11-1--11-11-1-1--1-1-11111-|
  .. .. . .  . . .. .  .. .. . .  . . .....


e|------------------------------------------|
B|------------------------------------------|
G|------------------------------------------|
D|------------------------------------------|
A|00-00-0-0--0-0-00-0--00-00-0-0--0-0-00000-|
D|00-00-0-0--0-0-00-0--00-00-0-0--0-0-00000-|
  .. .. . .  . . .. .  .. .. . .  . . .....


and there you go hope you enjoy and and please tell me if there is anything wrong and 
fix it:)

| /  slide up
| \  slide down
| h  hammer-on
| p  pull-off
| ~  vibrato

            
            
Suggest correction
Creating personal tab
Creating personal tab
You can edit any tab online and save it as your Personal.

You can edit, replace or remove any tab part or add personal notes – all changes will be seen only by you.

Personal tabs can be accessed anytime from any device, even offline.
Learn more »
comments
print report bad tab
8 comments total. Showing first comments.
-1 reply
KsE421 50 Jun 25, 2009 12:45 PM

you copied have my tab ya bastard. Geez, have some honor and tab it yourself. And the part you tabbed isn't even right

-1 reply
KsE421 50 Jun 25, 2009 12:45 PM

*half

-1 reply
a7xsyngates 71 Aug 19, 2009 07:00 PM

your both dumb, it's in drop b, this sounds nothing like the song, learn how to ****in play

guest
You may want to rate the tab now too:
select rating
Wanna post a correction for this tab? Suggest correction