Oops, an error
Loading. Please wait.

Ben Has A Kid tab

version 2
version 2

Whole song

Interactive

3,647 views 1 this week
3 commentsread comments
1 2 3 4 5
1 last vote to show rating
add to favorites
×
Save as Personal and add changes to this tab that will be seen only by you. Learn more ›
×
You can save this tab as Personal to edit and correct it or add notes. All changes will be seen only by you. Learn more »
launch autoscroll
font size
0
reset
how to read this tab
guitar tuner
edit
Autoscroll
slow
fast
+/-
esc
set tempo
stop
This is just the chorus because there is already another tab but it didnt have this.

The Devil Wears Prada - Ben Has a Kid chorus

This is 100% i saw it live.

e------------8-----------------10-------|
B----6---6-------6-----6---6--------6---|
G--7---7---7---7---7-7---7---7----7---7-|
D--.---.---.---------.---.---.----------|
A---------------------------------------|
D---------------------------------------|
  

e-----------------15-------------------------|-12h13-12/-|-17----------|
B-----12----12----------12-------12----12----|-----------|-------12----|
G--13----13----13----13----13-13----13----13-|-----------|----13----13-|
D---.-----.-----.--------------.-----.-----.-|-----------|-------------|
A--------------------------------------------|-----------|-------------|
D--------------------------------------------|-----------|-------------|


   

            
            
Suggest correction
Creating personal tab
Creating personal tab
You can edit any tab online and save it as your Personal.

You can edit, replace or remove any tab part or add personal notes – all changes will be seen only by you.

Personal tabs can be accessed anytime from any device, even offline.
Learn more »
Give kudos to tab author, rate the tab!
1 2 3 4 5
comments
print report bad tab
3 comments total.
0 reply
Kwonnie 7,994 Aug 27, 2009 04:40 PM

Third measure (13, 12, 15) is out of key. I think it's 14, 12, 15.

0 reply
Kwonnie 7,994 Aug 27, 2009 04:41 PM

^ on the next strings down.

0 reply
Kwonnie 7,994 Aug 27, 2009 07:11 PM

No, correction again:

PM PMPM PMPM PM PMPM PMPM
E S E S E E E E E E S E S E E E E E
-----------------8---L--8---L--|-----------------10--L--10--L--|
-------------------------------|---------------------8---L--8--|
--7--10-7--10-7-----10--L--10--|--7--10-7--10-7----------------|
-------------------------------|-------------------------------|
-------------------------------|-------------------------------|
-------------------------------|-------------------------------|

PM PM PM PM PM
E S E S E E E E E E E E E Q E E
--------------------15---L--15---L--|--12---L--12---L--12g13----12--10--|
------13-----13---------13---L--13--|------10---L--10-------------------|
--14-----14-----14------------------|-----------------------------------|
------------------------------------|-----------------------------------|
------------------------------------|-----------------------------------|
------------------------------------|-----------------------------------|

guest
Wanna post a correction for this tab? Suggest correction