Oops, an error
Loading. Please wait.

Danger Wildman tab

version 2
version 2

Whole song

Interactive

100,608 views 27 this week
31 commentsread comments
1 2 3 4 5
x 25
add to favorites
×
Save as Personal and add changes to this tab that will be seen only by you. Learn more ›
×
You can save this tab as Personal to edit and correct it or add notes. All changes will be seen only by you. Learn more »
launch autoscroll
font size
0
reset
how to read this tab
guitar tuner
edit
Autoscroll
slow
fast
+/-
esc
set tempo
stop
-------------------------------------------------------------------------------
                             Danger: Wildman - The Devil Wears Prada
-------------------------------------------------------------------------------
Tabbed by: Me

Let me know if there are any flub ups.
Sometimes type one thing when I mean to type something else......
Let me know if I need to fix anything, and i will :]

Tuning: Droppith to the D

Guitar 1 and 2
e|----|-------------------------------------------|
B|----|-------------------------------------------|
G|----|-------------------------------------------|[x2]
D|-0--|-------------------------------------------|
A|-0--|--------4h5-5------------------------------|
D|-0--|---------------00-0-0-0-0-0-0-0-0-0-000000-|
   .                 ..   .   .   .   .   ......


e|------------------------------------|
B|------------------------------------|
G|------------------------------------|[x2]
D|------------------------------------|
A|-3h4-4------------------------------|
D|--------00-0-0-0-0-0-0-0-0-0-000000-|
          ..   .   .   .   .   ......
  
  Repeat from top, guiar 2 does this the second time: 

e|------------------------------------|
B|------------------------------------|
G|------------------------------------|[x2]
D|------------------------------------|
A|-7h8-8------------------------------|
D|--------00-0-0-0-0-0-0-0-0-0-000000-|
          ..   .   .   .   .   ......

e|------------------------------------|
B|------------------------------------|
G|------------------------------------|[x2]
D|------------------------------------|
A|-6h7-7------------------------------|
D|--------00-0-0-0-0-0-0-0-0-0-000000-|
          ..   .   .   .   .   ......

and end with:
e|-------|
B|-------|
G|-------|
D|---0---|
A|---0---|
E|---0---|

  [Both guitars]
e|----------------------------|
B|----------------------------|
G|----------------------------|
D|-00000-00-00-00-00000-00-00-|[x4 1/2]
A|-00000-00-00-00-00000-00-00-|
E|-00000-00-00-00-00000-00-00-|


  Guitar 2 plays the above again while guitar 1 plays this:
e|---------------------------------------------------------------------------|
B|---------------------------------------------------------------------------|
G|---------------------------------------------------------------------------|
D|-3333333333333333-2222222222222222-7777777777777777-55555555-88888888------|
A|---------------------------------------------------------------------------|
E|---------------------------------------------------------------------------|

                                               Both guitars
e|--------------------------------------------------------------|
B|--------------------------------------------------------------|
G|--------------------------------------------10-10-10-12-12-12-|
D|-3333333333333333-2222222222222222-00000000-x--x--x--x--x--x--|
A|--------------------------------------------8--8--8--10-10-10-|
E|--------------------------------------------------------------|

  "as long as these struggles......" [Both Guitars]
e|-----------------------------------------|
B|-----------------------------------------|
G|-----------------------------------------|
D|-00000000-55555555-88888888-77777777-0~~-|
A|-00000000-55555555-88888888-77777777-0~~-|
E|-00000000-55555555-88888888-77777777-0~~-|

 
*Pick slides*

  Guitar 1
e|-------------------------------------------------|
B|-------------------------------------------------|
G|-------------------------------------------------|
D|-------------------------------------------------|
A|-8-10-7-7-8-5-7-8-5-4-----8-10-7-7-8-5-7-8-5-4-5-|
E|-------------------------------------------------|

e|-------------------------------------------------------|
B|-------------------------------------------------------|
G|-------------------------------------------------------|
D|-------------------------------------------------------|
A|-12-13-10-10-8-10-12-8-7-----12-13-10-10-8-10-12-8-7-8-|
E|-------------------------------------------------------|

Guitar 2
e|-------------------------------------------------|
B|-------------------------------------------------|
G|-------------------------------------------------|
D|-------------------------------------------------|[x2]
A|-8-10-7-7-8-5-7-8-5-4-----8-10-7-7-8-5-7-8-5-4-5-|
E|-------------------------------------------------|

Here's an alternative to the top riff.
This is the way Jeremy Plays it on this video:
http://www.youtube.com/watch?v=3Q4Vy3UP8OY
So if you want to play it exactly like them here you go
I just think the other way is easier
e|-------------------------------------------------|
B|-------------------------------------------------|
G|-------------------------------------------------|
D|-3-5-2-2-3-0-2-3---------3-5-2-2-3-0-2-3---------|
A|-----------------5-4---------------------5-4-5---|
E|-------------------------------------------------|
You decide
  
 
e|------------------------------------------------------------------|
B|------------------------------------------------------------------|
G|------------------------------------------------------------------|
D|------------------------------------------------------------------|[x2]
A|------------4-3-1-0-----------------------4-3-1-00000000----------|
E|-0-00000000---------00000000-1-00000000-0----------------44444444-|
     ........         ........   ........

e|-------------------------------------|
B|-------------------------------------|
G|-10-10-10-10-10-10-12-12-12-12-12-12-|
D|-x--x--x--x--x--x--x--x--x--x--x--x--|
A|-8--8--8--8--8--8--10-10-10-10-10-10-|
E|-------------------------------------|
    

  "as long......when worded......" [Both Guitars]
e|----------------------------------------------|
B|----------------------------------------------|
G|----------------------------------------------|
D|-00000000-55555555-88888888-77777777------0~~-|
A|-00000000-55555555-88888888-77777777-[x2]-0~~-|
E|-00000000-55555555-88888888-77777777------0~~-|
(I can't figure out if it goes like that^ or if I
should change the 777's to 555's.  What do you think?)


No guitar until massive breakdown.


e|----------------------------|
B|----------------------------|
G|----------------------------|
D|-00000-00-00-00-00000-00-00-|[x4]
A|-00000-00-00-00-00000-00-00-|
E|-00000-00-00-00-00000-00-00-|

e|-------------------|
B|-------------------|
G|-10-10-10-12-12-12-|
D|-x--x--x--x--x--x--|
A|-8--8--8--10-10-10-|
E|-------------------|

  One guitar does this, I'm not sure what the other one does with it
  Let me know if you know
e|---------------------------------------------------------------|
B|---------------------------------------------------------------|
G|-10-----9------6-------14-------12------14-----15------18------|
D|-x-[x8]-x-[x8]-x-[x16]--x-[x12]--x-[x2]--x-[x2--x-[x8]--x-[x8]-|[x2]
A|-8------7------4-------12-------10------12-----13------16------|
E|---------------------------------------------------------------|

  "when worded correctly......"[Both guitars]
e|------------------------------------------|
B|------------------------------------------|
G|------------------------------------------|
D|-00000000-55555555-88888888-77777777--0~~-|
A|-00000000-55555555-88888888-77777777--0~~-|
E|-00000000-55555555-88888888-77777777--0~~-|


Let me know if the choruses end in 7 or 5,  That's
the part i'm most unsure about.

            
            
Suggest correction
Creating personal tab
Creating personal tab
You can edit any tab online and save it as your Personal.

You can edit, replace or remove any tab part or add personal notes – all changes will be seen only by you.

Personal tabs can be accessed anytime from any device, even offline.
Learn more »
comments
print report bad tab
31 comments total. Showing first comments.
+2 reply
ninjagayden777 537 May 21, 2009 06:04 AM

I think they end in sevens. Sounds pretty good to me btw. Great job!

+2 reply
The Cobra 10 Jun 16, 2009 01:23 PM

I think they are sevens. Dude keep tabbing cuz ur amazing.

+2 reply
someguy9d 10 Jun 30, 2009 07:36 AM

sweet tab and tdwp it the bestest ever.

guest
You may want to rate the tab now too:
select rating
Wanna post a correction for this tab? Suggest correction