Oops, an error
Loading. Please wait.

Danger Wildman tab

version 4
version 4

Whole song

Interactive

3,811 views 3 this week
2 commentsread comments
1 2 3 4 5
1 last vote to show rating
add to favorites
×
Save as Personal and add changes to this tab that will be seen only by you. Learn more ›
×
You can save this tab as Personal to edit and correct it or add notes. All changes will be seen only by you. Learn more »
launch autoscroll
font size
0
reset
how to read this tab
guitar tuner
edit
Autoscroll
slow
fast
+/-
esc
set tempo
stop
Author
                                     Danger: Wildman
                                  The Devil Wears Prada
                           With Roots Above And Branches Below

*Both Guitars Included
*About 95% Correct
*Want the GuitarPro tab? Approve it :) Date: August 10. Look for it :D
 (If it get's denied, don't worry, I'll re-upload it ;))
*Rate, and Comment
*Any doubts, complaints, comments, corrections are welcome :)
*Both guitars are in Drop D

.::. .::. .::. .::. .::. .::. .::. .::. .::. .::. .::. .::. .::. .::. .::. .::. .::. .::. 


Rythm Guitar (Jeremy) Left
                                            x2
|---------|----------------------------------|
|---------|----------------------------------|
|---------|----------------------------------|
|-0-------|----------------------------------|
|-0-------|----------------------------------|
|-0-------|-/12-12-000-00-00-00-00--0-000000-|
                   ..  .  .  .  .     ......

                                  x2
|----------------------------------|
|----------------------------------|
|----------------------------------|
|----------------------------------|
|----------------------------------|
|-/11-11-000-00-00-00-00--0-000000-|
         ..  .  .  .  .     ......

Repeat previous two bars.

                                       x2
|---------|-----------------------------|--------------------------|
|---------|-----------------------------|--------------------------|
|---------|-----------------------------|--------------------------|
|---------|-----------------------------|--------------------------|
|-0-------|-000000-00-00-00000000-00-00-|-0---00-00-00000000-00-00-|
|-0-------|-000000-00-00-00000000-00-00-|-0---00-00-00000000-00-00-|
  .         ...... .. .. ........ .. ..   .   .. .. ........ .. ..

|-----------------------------|---------------|
|-----------------------------|---------------|
|-----------------------------|---------------|
|-----------------------------|---------------|
|-000000-00-00-00000000-00-00-|-00-0000-0-000-|
|-000000-00-00-00000000-00-00-|-00-0000-0-000-|
  ...... .. .. ........ .. ..   .. .... . ...

                            x3½
|-----------------------------|-----------------------|
|-----------------------------|-----------------------|
|-----------------------------|-10-10-10-12-12-12-----|
|-----------------------------|-----------------------|
|-000000-00-00-00000000-00-00-|-8--8--8--10-10-10-----|
|-000000-00-00-00000000-00-00-|-----------------------|
  ...... .. .. ........ .. ..

|------------------------------------------------------------------|
|------------------------------------------------------------------|
|------------------------------------------------------------------|
|-0000000000000000555555555555555588888888888888887777777777777777-|
|-0000000000000000555555555555555588888888888888887777777777777777-|
|-0000000000000000555555555555555588888888888888887777777777777777-|


|------------------------------------|
|------------------------------------|
|--------------------------Pickslide-|
|-0----------------------------------|
|-0----------------------------------|
|-0----------------------------------|

|-------------------------------|--------------------------------|
|-------------------------------|--------------------------------|
|-10--12-9--9-10--7-9-10--7--6--|-10--12-9--9-10--7-9-10--7-6-7--|
|-x----x-x--x-x---x-x-x---x--x--|-x----x-x--x-x---x-x-x---x-x-x--|
|-8---10-7--7-8---5-7-8---5--4--|-8---10-7--7-8---5-7-8---5-4-5--|
|-------------------------------|--------------------------------|

Repeat previous two bars.

|----------------------------------|--------------------------------|
|----------------------------------|--------------------------------|
|----------------------------------|--------------------------------|
|----------------------------------|--------------------------------|
|-5--------------------------------|--------------------------------|
|---0000000-8-7-5-4-0000001-000000-|-0-0000000-8-7-5-4444444411111--|
    ....... . . . . ......  ......     ....... . . . .............

Repeat previous two bars.

|-------------------------|-------------------------|
|-------------------------|-------------------------|
|-10-10-10-10-10-10-10-10-|-12-12-12-12-12-12-12----|
|-x--x--x--x--x--x--x--x--|--x--x--x--x--x--x--x----|
|-8--8--8--8--8--8--8--8--|-10-10-10-10-10-10-10----|
|-------------------------|-------------------------|

                                                                  x2
|------------------------------------------------------------------|
|------------------------------------------------------------------|
|------------------------------------------------------------------|
|-0000000000000000555555555555555588888888888888887777777777777777-|
|-0000000000000000555555555555555588888888888888887777777777777777-|
|-0000000000000000555555555555555588888888888888887777777777777777-|

|------------------------------------|
|------------------------------------|
|------------------------------------|
|-0----------------------------------|
|-0----------------------------------|
|-0----------------------------------|

Clean Singing w/synth and drums

                             x2
|-----------------------------|--------------------------|
|-----------------------------|--------------------------|
|-----------------------------|--------------------------|
|-----------------------------|--------------------------|
|-000000-00-00-00000000-00-00-|-0---00-00-00000000-00-00-|
|-000000-00-00-00000000-00-00-|-0---00-00-00000000-00-00-|
  ...... .. .. ........ .. ..   .   .. .. ........ .. ..

|---------------------------------------|
|---------------------------------------|
|-----------------10-10-10-12-12-12-----|
|-----------------x--x--x---x--x--x-----|
|-000000-00-00-00-8--8--8--10-10-10-----|
|-000000-00-00-00-----------------------|
  ...... .. .. ..

|-----------------------------------------|---------------------------------|
|-----------------------------------------|---------------------------------|
|-10-10-10-10-10-10-10-10-9-9-9-9-9-9-9-9-|-6-6-6-6-6-6-6-6-6-6-6-6-6-6-6-6-|
|-x--x--x--x--x--x--x--x--x-x-x-x-x-x-x-x-|-x-x-x-x-x-x-x-x-x-x-x-x-x-x-x-x-|
|-8--8--8--8--8--8--8--8--7-7-7-7-7-7-7-7-|-4-4-4-4-4-4-4-4-4-4-4-4-4-4-4-4-|
|-----------------------------------------|---------------------------------|

|---------------------------------------------|-----------------------------------------|
|---------------------------------------------|-----------------------------------------|
|-10-10-10-10-10-10-10-10-9-9-9-9-12-12-14-14-|-----------------------------------------|
|-x--x--x--x--x--x--x--x--x-x-x-x--x--x--x--x-|-8-8-8-8-8-8-8-8-11-11-11-11-11-11-11-11-|
|-8--8--8--8--8--8--8--8--7-7-7-7-10-10-12-12-|-8-8-8-8-8-8-8-8-11-11-11-11-11-11-11-11-|
|---------------------------------------------|-8-8-8-8-8-8-8-8-11-11-11-11-11-11-11-11-|

Repeat previous four bars.

|-------------------------------|--------------------------------|
|-------------------------------|--------------------------------|
|-10--12-9--9-10--7-9-10--7--6--|-10--12-9--9-10--7-9-10--7-6-7--|
|-x----x-x--x-x---x-x-x---x--x--|-x----x-x--x-x---x-x-x---x-x-x--|
|-8---10-7--7-8---5-7-8---5--4--|-8---10-7--7-8---5-7-8---5-4-5--|
|-------------------------------|--------------------------------|

Repeat previous two bars.

|------------------------------------|
|------------------------------------|
|---------------------------Fade out-|
|-0----------------------------------|
|-0----------------------------------|
|-0----------------------------------|

.::. .::. .::. .::. .::. .::. .::. .::. .::. .::. .::. .::. .::. .::. .::. .::. .::. .::.

Lead Guitar (Chris) Right
                                            x2
|---------|----------------------------------|
|---------|----------------------------------|
|---------|----------------------------------|
|-0-------|----------------------------------|
|-0-------|----------------------------------|
|-0-------|-/12-12-000-00-00-00-00--0-000000-|
                   ..  .  .  .  .     ......

                                  x2
|----------------------------------|
|----------------------------------|
|----------------------------------|
|----------------------------------|
|----------------------------------|
|-/11-11-000-00-00-00-00--0-000000-|
         ..  .  .  .  .     ......

                                  x2
|----------------------------------|
|----------------------------------|
|----------------------------------|
|----------------------------------|
|----------------------------------|
|-/15-15-000-00-00-00-00--0-000000-|
         ..  .  .  .  .     ......

                                  x2
|----------------------------------|
|----------------------------------|
|----------------------------------|
|----------------------------------|
|----------------------------------|
|-/14-14-000-00-00-00-00--0-000000-|
         ..  .  .  .  .     ......

                                       x2
|---------|-----------------------------|--------------------------|
|---------|-----------------------------|--------------------------|
|---------|-----------------------------|--------------------------|
|---------|-----------------------------|--------------------------|
|-0-------|-000000-00-00-00000000-00-00-|-0---00-00-00000000-00-00-|
|-0-------|-000000-00-00-00000000-00-00-|-0---00-00-00000000-00-00-|
  .         ...... .. .. ........ .. ..   .   .. .. ........ .. ..

|-----------------------------|---------------|
|-----------------------------|---------------|
|-----------------------------|---------------|
|-----------------------------|---------------|
|-000000-00-00-00000000-00-00-|-00-0000-0-000-|
|-000000-00-00-00000000-00-00-|-00-0000-0-000-|
  ...... .. .. ........ .. ..   .. .... . ...

Credit for TP to rockstarbowker
|------------------------------------------------------------------|
|------------------------------------------------------------------|
|------------------------------------------------------------------|
|-3333333333333333222222222222222277777777777777775555555588888888-|
|------------------------------------------------------------------|
|------------------------------------------------------------------|

|--------------------------------------------------|-----------------|
|--------------------------------------------------|-----------------|
|--------------------------------------------------|-7-7-7-9-9-9-----|
|-333333333333333322222222222222220000000000000000-|-x-x-x-x-x-x-----|
|--------------------------------------------------|-5-5-5-7-7-7-----|
|--------------------------------------------------|-----------------|

                         x2
|-------------------------|-------------------------------------------------|
|-------------------------|-------------------------------------------------|
|-14-14-14-14-14-14-14-14-|-12-12-12-12-12-12-12-12-12-12-12-12/14-14-14-14-|
|--x--x--x--x--x--x--x--x-|--x--x--x--x--x--x--x--x--x--x--x--x--x--x--x--x-|
|-12-12-12-12-12-12-12-12-|-10-10-10-10-10-10-10-10-10-10-10-10/12-12-12-12-|
|-------------------------|-------------------------------------------------|

                         x2
|-------------------------|---------------------------------|
|-------------------------|---------------------------------|
|-10-10-10-10-10-10-10-10-|-9-9-9-9-9-9-9-9-9-6-6-6-7-7-7-7-|
|-x--x--x--x--x--x--x--x--|-x-x-x-x-x-x-x-x-x-x-x-x-x-x-x-x-|
|-8--8--8--8--8--8--8--8--|-7-7-7-7-7-7-7-7-7-4-4-4-5-5-5-5-|
|-------------------------|---------------------------------|

|------------------------------------|
|------------------------------------|
|-----------Pickslide----------------|
|-0----------------------------------|
|-0----------------------------------|
|-0----------------------------------|

|-------------------|------------------|-------------------|------------------|
|-------------------|------------------|-------------------|------------------|
|-------------7--6--|-------------767--|-------------------|------------------|
|-3-52-23-023-x--x--|-3-52-23-023-xxx--|-7-85-57-357-3--2--|-7-85-57-357-323--|
|-3-52-23-023-5--4--|-3-52-23-023-545--|-------------------|------------------|
|-3-52-23-023-------|-3-52-23-023------|-------------------|------------------|


|----------------------------------|-------------------------------------|
|----------------------------------|-------------------------------------|
|----------------------------------|-------------------------------------|
|----------------------------------|-------------------------------------|
|----------------------------------|-------------------------------------|
|-0-0000000-8-7-5-4-0000001-000000-|-0-0000000-12-10-8-777777774444444---|
    ....... . . . . ......  ......     .......  .  . . ...............

|------------------------------------|------------------------------------|
|------------------------------------|------------------------------------|
|------------------------------------|------------------------------------|
|------------------------------------|------------------------------------|
|------------------------------------|------------------------------------|
|-0-0000000-12-10-8-7-0000004-000000-|-0-0000000-12-10-8-7777777744444444-|
    .......  .  . . . ......  ......     .......  .  . . ................

|---------------------------------|
|---------------------------------|
|-7-7-7-7-7-7-7-7-9-9-9-9-9-9-9---|
|-x-x-x-x-x-x-x-x-x-x-x-x-x-x-x---|
|-5-5-5-5-5-5-5-5-7-7-7-7-7-7-7---|
|---------------------------------|

                         x2
|-------------------------|-------------------------------------------------|
|-------------------------|-------------------------------------------------|
|-14-14-14-14-14-14-14-14-|-12-12-12-12-12-12-12-12-12-12-12-12/14-14-14-14-|
|--x--x--x--x--x--x--x--x-|--x--x--x--x--x--x--x--x--x--x--x--x--x--x--x--x-|
|-12-12-12-12-12-12-12-12-|-10-10-10-10-10-10-10-10-10-10-10-10/12-12-12-12-|
|-------------------------|-------------------------------------------------|

                         x2
|-------------------------|---------------------------------|
|-------------------------|---------------------------------|
|-10-10-10-10-10-10-10-10-|-9-9-9-9-9-9-9-9-9-6-6-6-7-7-7-7-|
|-x--x--x--x--x--x--x--x--|-x-x-x-x-x-x-x-x-x-x-x-x-x-x-x-x-|
|-8--8--8--8--8--8--8--8--|-7-7-7-7-7-7-7-7-7-4-4-4-5-5-5-5-|
|-------------------------|---------------------------------|

|------------------------------------------------------------------|
|------------------------------------------------------------------|
|------------------------------------------------------------------|
|-0000000000000000555555555555555588888888888888887777777777777777-|
|-0000000000000000555555555555555588888888888888887777777777777777-|
|-0000000000000000555555555555555588888888888888887777777777777777-|

|------------------------------------|
|------------------------------------|
|------------------------------------|
|-0----------------------------------|
|-0----------------------------------|
|-0----------------------------------|

Clean Singing w/synth and drums

                             x2
|-----------------------------|--------------------------|
|-----------------------------|--------------------------|
|-----------------------------|--------------------------|
|-----------------------------|--------------------------|
|-000000-00-00-00000000-00-00-|-0---00-00-00000000-00-00-|
|-000000-00-00-00000000-00-00-|-0---00-00-00000000-00-00-|
  ...... .. .. ........ .. ..   .   .. .. ........ .. ..

|---------------------------------------|
|---------------------------------------|
|-----------------14-14-14-15-15-15-----|
|-----------------x--x--x---x--x--x-----|
|-000000-00-00-00-12-12-12-13-13-13-----|
|-000000-00-00-00-----------------------|
  ...... .. .. ..

                         x2                        x2
|-------------------------|-------------------------|
|-------------------------|-------------------------|
|-19-19-19-19-19-19-19-19-|-18-18-18-18-18-18-18-18-|
|--x--x--x--x--x--x--x--x-|--x--x--x--x--x--x--x--x-|
|-17-17-17-17-17-17-17-17-|-16-16-16-16-16-16-16-16-|
|-------------------------|-------------------------|

|-------------------------|-------------------------|
|-------------------------|-------------------------|
|-14-14-14-14-14-14-14-14-|-14-14-14-14-12-12-14-14-|
|--x--x--x--x--x--x--x--x-|--x--x--x--x--x--x--x--x-|
|-12-12-12-12-12-12-12-12-|-12-12-12-12-10-10-12-12-|
|-------------------------|-------------------------|

|-------------------------|-------------------------|
|-------------------------|-------------------------|
|-15-15-15-15-15-15-15-15-|-18-18-18-18-18-18-18-18-|
|--x--x--x--x--x--x--x--x-|--x--x--x--x--x--x--x--x-|
|-13-13-13-13-13-13-13-13-|-16-16-16-16-16-16-16-16-|
|-------------------------|-------------------------|

Repeat previous six bars.

|------------------------------------------------------------------|
|------------------------------------------------------------------|
|------------------------------------------------------------------|
|-0000000000000000555555555555555588888888888888887777777777777777-|
|-0000000000000000555555555555555588888888888888887777777777777777-|
|-0000000000000000555555555555555588888888888888887777777777777777-|

|------------------------------------|
|------------------------------------|
|---------------------------Fade-out-|
|-0----------------------------------|
|-0----------------------------------|
|-0----------------------------------|

            
            
Suggest correction
Creating personal tab
Creating personal tab
You can edit any tab online and save it as your Personal.

You can edit, replace or remove any tab part or add personal notes – all changes will be seen only by you.

Personal tabs can be accessed anytime from any device, even offline.
Learn more »
Give kudos to tab author, rate the tab!
1 2 3 4 5
comments
print report bad tab
2 comments total.
0 reply
AvoRulezdOOd 10 Jan 02, 2010 05:37 PM

dude!

the intro is wrong

4/5 its good

0 reply
Gtr_god_69 833 Jan 19, 2010 10:37 AM

well if you play it it's the same stuff as the other versions just instead of playing in the A string you play in the D one, it's the same thing but thanks anyway

guest
You may want to rate the tab now too:
select rating
Wanna post a correction for this tab? Suggest correction