Oops, an error
Loading. Please wait.

Dogs Can Grow Beards All Over tab

version 2
version 2

Whole song

92,214 views 12 this week
24 commentsread comments
1 2 3 4 5
x 54
add to favorites
×
Save as Personal and add changes to this tab that will be seen only by you. Learn more ›
×
You can save this tab as Personal to edit and correct it or add notes. All changes will be seen only by you. Learn more »
launch autoscroll
font size
0
reset
how to read this tab
guitar tuner
backing track
0:00
0:00
edit
Autoscroll
slow
fast
+/-
esc
set tempo
stop
This tab is taken STRAIGHT from TWDP's Blog.

***If you cover this at a show, make sure to tell everyone who's song you're playin (TDWP)!

This is loosely how I (Chris), one of the guitarists, play the song.

TUNING -  Drop D  (low to high - D A D G B E)

There aren't really any rhythms tabbed out...so figure them out yourself!

Any questions or obvious mistakes, ask or point out in the blog and I will do my best to 
things- CHRIS


DROP D TUNING

GUITAR 1
|-----------------------------------------------------------------------------------|--|
|-----------------------------------------------------------------------------------|--|
|-----------------------------------------------------------------------------------|--|
|-----------------------------------------------------------------------------------|--|
|------7h10--0-7h10--0-7h10--0-7h10--0-7h10------5h8-0--5h8--0-5h8--0-5h8--0-5h8---|---|
|--0-0---------------------------------------0-0------------------------------------|--|

|-------------------------------------------------------------------------|
|-------------------------------------------------------------------------|
|-------------------------------------------------------------------------|
|---------------------------------------------------------8-7-5-----------|
|------4h7--0-4h7--0-4h7--0-4h7--0-4h7------5h8--0-5h8--0-------8-7-5-4p0-|
|--0-0----------------------------------0-0-------------------------------|

GUITAR 2 (progression strummed to beat)
|----------|
|----------|
|----------|
|--8-7-5-0-|
|--8-7-5-0-|
|--8-7-5-0-|
    *  ^ come in on this (welcome....) and then do a slide into the full progression

next part (Chainsaw brutality...) both guitars all palm muted (*=pinch harmonic)

|----------------------------------|
|----------------------------------|
|----------------------------------|
|----------------------------------|
|--0-1-2-0-3-2-0----0-1-2-0-3-0-3--|
|--0-1-2-0-3-2-0-3*-0-1-2-0-3-0----|

Fill

|--------------------------|
|--------------------------|
|--------------------------|
|--4-4-4-3-3-3-2-2-2-1-1-1-|
|--4-4-4-3-3-3-2-2-2-1-1-1-|
|--4-4-4-3-3-3-2-2-2-1-1-1-|

Fast part (king of the diamond...)

|----------------------------------|
|----------------------------------|
|----------------------------------|
|----------------------------------|
|------4-4-3-3-------------3-3-2-2-|
|--0-0---------4-4-3-3-2-2---------|

(lawlessness...)

|----------------------|
|----------------------|
|----------------------|
|----------------------|
|----4*-3*-------3*-2--|
|--0-------4-3-2-------|

(We're too strong....) (figure out the pattern)

|--------------------------------------|------------|
|--------------------------------------|------------|
|--7-7-7-7-7-7-7-7---------------------|------------|
|--6-6-6-6-6-6-6-6---------------------|------------|
|--5-5-5-5-5-5-5-5---------------------|----3*---5--|
|------------------6p0--5p0--3p0--2p0--|--0---0-----|

(dear lord...) (all open notes palm muted)

|---------------------------------------|
|---------------------------------------|
|---------------------------------------|
|--0---3---5---3-0----------------------|
|--0-0-3-0-5-0-3-0--0-0-0-0-0-0-0-0-0-0-|
|--0-0-3-0-5-0-3-0--0-0-0-0-0-0-0-0-0-0-|

|------------------------------------|
|------------------------------------|
|------------------------------------|
|--0---3---5---6-5-------------------|
|--0-0-3-0-5-0-6-5--0-0-0-0-0-0-0-3--|
|--0-0-3-0-5-0-6-5--0-0-0-0-0-0-0----|

Slide starts on 12th fret

repeat previous part then ring out on open D before..

(He wears...)

|-------------------------------------------------------------|
|-------------------------------------------------------------|
|-------------------------10-10-10-------10-10-10-10-12-12-12-|
|--8-8-8-8-10-10-10-0-0-0----------0-0-0----------------------|
|--8-8-8-8-10-10-10-0-0-0-8--8--8--0-0-0-8--8--8--8--10-10-10-|
|--8-8-8-8-10-10-10-0-0-0----------0-0-0----------------------|


|-----------------------------------------|
|-----------------------------------------|
|--------10-10-10-------10-10-10-10-9-9-9-|
|--0-0-0----------0-0-0-------------------|
|--0-0-0-8--8--8--0-0-0-8--8--8--8--7-7-7-|
|--0-0-0----------0-0-0-------------------|

breakdown is just open d (figure out the pattern)

last breakdown is played on

|----------|
|----------|
|--7-7-7-7-|
|--6-6-6-6-|
|--5-5-5-5-|
|----------|


thats it. :]

            
            
Suggest correction
Creating personal tab
Creating personal tab
You can edit any tab online and save it as your Personal.

You can edit, replace or remove any tab part or add personal notes – all changes will be seen only by you.

Personal tabs can be accessed anytime from any device, even offline.
Learn more »
comments
print report bad tab
24 comments total. Showing first comments.
+1 reply
mynameispoop123 37 Dec 21, 2006 04:58 AM

can you tab Texas is South?

0 reply
crash_course 147 Dec 30, 2006 07:17 PM

you'd have to ask the band...because the band submitted this to their myspace blog and someone delivered.

-2 reply
piggypoptart 10 Jan 16, 2007 09:29 AM

how do you pull off a pinch harmonic?

guest
Wanna post a correction for this tab? Suggest correction