Oops, an error
Loading. Please wait.

Goats On A Boat tab

version 1
version 1

Whole song

Interactive

17,697 views 1 this week
14 commentsread comments
1 2 3 4 5
x 12
add to favorites
×
Save as Personal and add changes to this tab that will be seen only by you. Learn more ›
×
You can save this tab as Personal to edit and correct it or add notes. All changes will be seen only by you. Learn more »
launch autoscroll
font size
0
reset
how to read this tab
guitar tuner
edit
Autoscroll
slow
fast
+/-
esc
set tempo
stop
Author
Difficulty
This is my first tab so i hope its good

Bend= b
Tremelo= t
Let ring= ~

Intro - [0:12-0:36]

E|--------------------------------------------------------|
B|--------------------------------------------------------|
G|--------8---------8---------8---------------------------|   x3
D|--------7-x4------7-x4------7--x4-----------------------|
A|---0----6-----0---6-----0---6-----1----1----------------|
D|---0----------0---------0---------3----1----------------|
                                                                                         
                             *    *


E|--------------------------------------------------------|
B|--------------------------------------------------------|
G|--------8---------8---------8---------------------------|
D|--------7-x4------7-x4------7--x4-----------------------|
A|---0----6-----0---6-----0---6-----1----1--1----1---0----|
D|---0----------0---------0---------3----1--3----1---0----|
                                                                                         
                                                    *    *  *    *   *

 [0:36-0:57]

E|-----------------------------------------------------------------------|
B|-----------------------------------------------------------------------|
G|-----------------------------------------------------------------------|              x4
D|-----------------------------------------------------------------------|
A|---0-0000-----------0000--5h6p5b-----------------0000------------------|
D|---0-0000----8p5----0000---------0-0000----8p5---0000-------2h3p2b-----|
       ****           ****           ****          ****


[1:06-1:16]

E|-----------------------------------------------------------------------|
B|-----------------------------------------------------------------------|
G|-----------------------------------------------------------------------|
D|----7-5-7-8--5-7-3--x2-----7-5-7-8--5-7-3-----7-5-7-8--7h8-8p10-7------|
A|-0--8-7-8-10-8-7-5-------8-8-7-8-10-8-7-5---8--------------------------|
D|-0-----------------------8------------------8--------------------------|
   *                       *                  *
[1:16-1:26]
E|----------------------------------------------------------------------|
B|----------------------------------------------------------------------|
G|----------------------------------------------------------------------|
D|----7-5-7-8--5-7-3--x2-----7-5-7-8--5-7-3-----7-5-7-8--7h8--5h7-3-----|
A|-0--8-7-8-10-8-7-5-------8-8-7-8-10-8-7-5---8----------8h10-7h8-5-----|
D|-0-----------------------8------------------8-------------------------|
   *                       *                  *
[1:26-1:31]
E|--------------------------------------------------------------------|
B|--------------------------------------------------------------------|
G|--------------------------------------------------------------------|
D|-------------------10p7--11p7---------8t-7t-5t----------------------|
A|---0-0000---------------------0-0000--------------------------------|
D|---0-0000----8p7--------------0-0000--------------------------------|
       ****                       ****

[1:31-1:36]
Guitar 1
E|--------------------------------------------------------------------|
B|--------------------------------------------------------------------|
G|--------------------------------------------------------------------|
D|--------------------------------------------------------------------|
A|-8-x16--7-x16-------------------------------------------------------|
D|-8------7-----------------------------------------------------------|

Guitar 2
E|-----------------------------------------------------------------------|
B|-----------------------------------------------------------------------|
G|-10-----9-7------7-----6-----------------------------------------------|
D|-x--x14-x-x------x-x10-x-----------------------------------------------|
A|-8------7s5------5-----4-----------------------------------------------|
D|-----------------------------------------------------------------------|

[1:36-1:41]
E|--------------------------------------------------------------------|
B|--------------------------------------------------------------------|
G|--------------------------------------------------------------------|
D|-------------------10p7--11p7---------8t-7t-5t----------------------|
A|---0-0000---------------------0-0000--------------------------------|
D|---0-0000----8p7--------------0-0000--------------------------------|
       ****                       ****

[1:41-1:45]
Guitar 1
E|--------------------------------------------------------------------|
B|--------------------------------------------------------------------|
G|--------------------------------------------------------------------|
D|--------------------------------------------------------------------|
A|-8-x16--7-x16-------------------------------------------------------|
D|-8------7-----------------------------------------------------------|

Guitar 2
E|-----------------------------------------------------------------------|
B|-----------------------------------------------------------------------|
G|-10-----9-7------7-----6-----------------------------------------------|
D|-x--x14-x-x------x-x10-x-----------------------------------------------|
A|-8------7s5------5-----4-----------------------------------------------|
D|-----------------------------------------------------------------------|


 [1:46-2:06]
|---------15-12------15-12-----------|------------------------------|
|---------------13-12-----13-12------|---------------12h13p12-------|
|------------------------------------|--------12h13p12------12h13p12|
|------------------------------------|-12h13p12---------------------|
|-0000-0-0----------------------0000-|------------------------------|
|-0000-0-0----------------------0000-|------------------------------|

[2:06-2:45]

E|-----------------------------------------------------------------|
B|-----------------------------------------------------------------|
G|-----------------------------------------------------------------|
D|-----------------------------------------------------------------|  x2
A|--8---10--0--0---strumming---------------------------------------|
D|--8---10--0--0---------------------------------------------------|


E|-----------------------------------------------------------------------|
B|-----------------------------------------------------------------------|
G|-----------------------------------------------------------------------|
D|-----------------------------------------------------------------------|  x2
A|--8---10-strum---------------------------------------------------------|
D|--8---10--------8p7--0-0--8p7--0-000-000---8p7--0-0--8p7--0-000-000----|
                                   *** ***                    *** ***

[2:45-2:50]

E|-------------------------------------------------------------|
B|-------------------------------------------------------------|
G|-------------------------------------------------------------|
D|-------------------------------------------------------------|
A|-------------------------------------------------------------|
D|---10--00-0--10--00-0--0-000-000--10--7--10------------------|
                           *** ***
[2:51-3:00]
All opens palmmuted
E|----------------------------------------------------------------|
B|----------------------------------------------------------------|
G|----------------------------------------------------------------|
D|----------------------------------------------------------------|
A|---8-8-8-7-7-7-0---0-0--00-00-0----8-8-8-7-7-7-8-8-8---0--------|
D|---------------0---0-0--00-00-0------------------------0--------|

[3:01-3:18]
E|---------------------------------------------------------------|
B|---------------------------------------------------------------|
G|---------------------------------------------------------------|
D|---------------------------------------------------------------|
A|---8-8-8-7-7-7-0---0-0--00-00-0-x2-----------------------------|
D|---------------0---0-0--00-00-0--------------------------------|


E|---------------------------------------------------------------|
B|---------------------------------------------------------------|
G|---------------------------------------------------------------|
D|---------------------------------------------------------------|
A|---8-8-8-7-7-7-8-8-8-7-7-7-8-8-8-7-7-7--0----------------------|
D|----------------------------------------0----------------------|


Breakdown All Opens [3:19-3:36]
E|-----------------------------------------------------------------|
B|-----------------------------------------------------------------|
G|-----------------------------------------------------------------|
D|-----------------------------------------------------------------|
A|-----------------------------------------------------------------|
D|-0-0-------------------------------------------------------------|

 Second guitar comes in [3:36-3:47]
E|----------------------------------------------------------------------|
B|----------------------------------------------------------------------|
G|-10------9---------14------12s14----------14-----15----12-------------|
D|--X--x3--X--X3-----x--x4----x--x--X4-------x--X4-x--X4-x--X4----------|
A|--8------7---------12------10s12----------12-----13----10-------------|
D|----------------0~------0~------------0~------------------------------|

Figure out the last 35 seconds

            
            
Suggest correction
Creating personal tab
Creating personal tab
You can edit any tab online and save it as your Personal.

You can edit, replace or remove any tab part or add personal notes – all changes will be seen only by you.

Personal tabs can be accessed anytime from any device, even offline.
Learn more »
comments
print report bad tab
14 comments total. Showing first comments.
+1 reply
silverstein8484 10 Aug 11, 2007 03:34 PM

nice job!

0 reply
rockonmetal83 283 Aug 24, 2007 10:31 AM

i could totally one up you on this tab...
but i wont cause im not that big of an *******.
|---------15-12------15-12-----------|------------------------------|
|---------------13-12-----13-12------|---------------12h13p12-------|
|------------------------------------|--------12h13p12------12h13p12|
|------------------------------------|-12h13p12---------------------|
|-0000-0-0----------------------0000-|------------------------------|
|-0000-0-0----------------------0000-|------------------------------|

Update your tab with this why dont ya. =]
Make it look a little nicer please.

+1 reply
mychemkid202 41 Dec 13, 2007 03:22 PM

finish the song you douche bag.

guest
You may want to rate the tab now too:
select rating
Wanna post a correction for this tab? Suggest correction