Oops, an error
Loading. Please wait.

Html Rulez D00D tab

version 4
version 4

Whole song

Interactive

6,032 views 6 this week
8 commentsread comments
1 2 3 4 5
x 8
add to favorites
×
Save as Personal and add changes to this tab that will be seen only by you. Learn more ›
×
You can save this tab as Personal to edit and correct it or add notes. All changes will be seen only by you. Learn more »
launch autoscroll
font size
0
reset
how to read this tab
guitar tuner
edit
Autoscroll
slow
fast
+/-
esc
set tempo
stop
-------------------------------------------------------------------------------
                             HTML Rulez D00d - The Devil Wears Prada
-------------------------------------------------------------------------------
Tabbed by: jaysk8s
Email: jayroolzd00d@yahoo.com
Myspace.com/jayrulezd00d
twitter.com/jaysk8s

Tuning: Dropped D

~-let ring
/-slide up
\-slide down
.-palm mute
h-hammer on
p-pull off
*-pinch harmonic
<>-natural harmonic
()-ghost note

I made this tab after i looked at all the others on here and they had alot
of stuff missing or sounded wrong so i tryed to make my own. I think this might be 100% 
correct now but ive thought that before and had to correct some so im not sure. 
I figured it out by ear and by watching live videos of
them playing.



Lead Guitar-[Chris Rubey]-Left Speaker

Intro 00:00                     
e||------------------------------|-----------------|THEN-|----------|
B||-101010-10101010-101010101010-|-----------------|DO---|----------|
G||- 9 9 9- 9 9 9 9- 9 9 9 9 9 9-|-999-9999-999999-|THE--|-7~~~~~---|
D||- x x x- x x x x- x x x x x x-|-xxx-xxxx-xxxxxx-|FIRST|-x--------|
A||- 7 7 7- 7 7 7 7- 7 7 7 7 7 7-|-777-7777-777777-|PART-|-5~~~~~---|
D||------------------------------|-----------------|AGAIN|-0~~~~~---|

 00:11                       
e|--------------------------------------------------|
B|--------------------------------------------------|
G|---------------10101010/-------------121212121212-|
D|8-88888888888-- x x x x --888888888-- x x x x x x-|
A|8-88888888888-- 8 8 8 8/--888888888--101010101010-|
D|8-88888888888-------------888888888---------------|

e|--------------------------------------------------|
B|--------------------------------------------------|
G|--101010/----101010/----101010/----12121212121212-|
D|0- x x x--00- x x x--00- x x x--00- x x x x x x x-|
A|0- 8 8 8/-00- 8 8 8/-00- 8 8 8/-00-10101010101010-|
D|0---------00---------00---------00----------------|

e|----------------------------------|
B|----------------------------------|
G|----------------------------------|
D|3-33333333333333-5555555555555555-|
A|3-33333333333333-5555555555555555-|
D|3-33333333333333-5555555555555555-|

e|--------------------------------------------------|
B|--------------------------------------------------|
G|--101010/----101010/----101010/----12121212121212-|
D|0- x x x--00- x x x--00- x x x--00- x x x x x x x-|
A|0- 8 8 8/-00- 8 8 8/-00- 8 8 8/-00-10101010101010-|
D|0---------00---------00---------00----------------|

 00:31
e|--------------------------------|----------------------|
B|--------------------------------|----------------------|
G|--------------------------------|----------------------|
D|-12121212-12-12-12-12-12121212--|-0000-0-0-0000--------|
A|-12121212-12-12-12-12-12121212--|-0000-0-0-0000-00000--|
D|-12121212-12-12-12-12-12121212--|-0000-0-0-0000-00000--|
                                                  .....
e|---------------------------------------------------|------------------|
B|---------------------------------------------------|------------------|
G|-7777-7-99-1010-99-77-55-33333333\1010101010101010-|-10101010-10-1212-|
D|-xxxx-x-xx- x x-xx-xx-xx-xxxxxxxx- x x x x x x x x-|- x x x x- x- x x-|
A|-5555-5-77- 8 8-77-55-33-11111111\ 8 8 8 8 8 8 8 8-|- 8 8 8 8- 8-1010-|
D|---------------------------------------------------|------------------|
cont.
e|----------------------------------------------------------|
B|----------------------------------------------------------|
G|1414-1212-1010-99-1010101010101010\1414141414141414-------|
D| x x- x x- x x-xx- x x x x x x x x- x x x x x x x x-0~~~~~|
A|1212-1010- 8 8-77- 8 8 8 8 8 8 8 8\1212121212121212-0~~~~~|
D|----------------------------------------------------0~~~~~|

Chorus x2 00:53                                          
e|------------------------------------------------|
B|------------------------------------------------|
G|-7777777777777777-5555555555555555-333333333333-|
D|-xxxxxxxxxxxxxxxx-xxxxxxxxxxxxxxxx-xxxxxxxxxxxx-|
A|-5555555555555555-3333333333333333-111111111111-|
D|------------------------------------------------|           
cont.                                                   
e|-----------------------------------------|
B|-----------------------------------------|
G|-----------------12h14p12----------------|
D|-1515151515151515--------14p12-12h14-12\-|
A|- . . . . . . . .------------------------|
D|-----------------------------------------|

Breakdown 01:14        x4        x4                           x4
e|-----------------------|---------|--------------------|-------|
B|-----------------------|---------|--------------------|-------|
G|-----------------------|---------|--------------------|-------|
D|-----------------------|---------|--------------------|-------|
A|-00000-0-0-00000-00000-|-00000-0-|-0-5-3-0-2-0-3-0-3*-|-0~0~~-|
D|-00000-0-0-00000-00000-|-00000-0-|-0-5-3-0-2-0-3-0----|-0~0~~-|
   ..... . . ..... .....   ..... .   . . . . . . . .      . .
cont.
e|-------------------|
B|-------------------|
G|-7~-7777777777-----|
D|-x~-xxxxxxxxxx-----|
A|-5~-5555555555-0~~-|
D|---------------0~~-|
                 .

Chorus 2 x2 02:07
e|-------------------------------------------------------------------|
B|-------------------------------------------------------------------|
G|-14141414141414141414141414141414-12121212121212121212121212121212-|
D|- x x x x x x x x x x x x x x x x- x x x x x x x x x x x x x x x x-|
A|-12121212121212121212121212121212-10101010101010101010101010101010-|
D|-------------------------------------------------------------------|
cont.
e|------------------------------------------------------------|
B|------------------------------------------------------------|
G|-15151515151515151515151515151515-1414141414141414-99999999-|
D|- x x x x x x x x x x x x x x x x- x x x x x x x x-xxxxxxxx-|
A|-13131313131313131313131313131313-1212121212121212-77777777-|
D|------------------------------------------------------------|
cont.
e|-------------------------------------------------------------------|
B|-------------------------------------------------------------------|
G|-14141414141414141414141414141414-12121212121212121212121212121212-|
D|- x x x x x x x x x x x x x x x x- x x x x x x x x x x x x x x x x-|
A|-12121212121212121212121212121212-10101010101010101010101010101010-|
D|-------------------------------------------------------------------|
cont.
e|-----------------------------------------------------------------------|
B|-----------------------------------------------------------------------|
G|-15151515151515151515151515151515-1010101010101010-99999999------------|
D|- x x x x x x x x x x x x x x x x- x x x x x x x x-xxxxxxxx-0~~~~~~~~--|
A|-13131313131313131313131313131313- 8 8 8 8 8 8 8 8-77777777-0~~~PICK---|
D|------------------------------------------------------------0~~~SLIDE--|
                                                                
Solo 02:41                                                      x5
e|----------------------------------------------------------------|
B|----------------------------------------------------------------|
G|----------------------------------------------------------------|
D|-----------------------------------------------------101010-555-|
A|-00-15p0------0-17p0------0-----------00-15p0------0-101010-555-|
D|-00------17p0-0------19p0-0-17p0-19p0-00------17p0-0-101010-555-|
   ..           .           .           ..           .

Outro/Last Breakdown 03:06            x4
e|----------|---------------------------|-------|
B|----------|---------------------------|-------|
G|----------|---------------------------|-------|
D|<7>~~~----|---------------------------|-<5>~~-|
A|<7>~~~0~~-|-000-000-00-00-00-00-00-00-|-------|
D|<7>~~~0~~-|-000-000-00-00-00-00-00-00-|-------|
        .     ... ... .. .. .. .. .. ..
cont.                       x2                          x2
e|----------------------------|---------------------------|----||
B|----------------------------|---------------------------|----||
G|----------------------------|---------------------------|----||
D|----------------------------|---------------------------|-0~-||
A|-000-000-00-00-00-00-000000-|-000-000-00-00-00-00-00-00-|-0~-||
D|-111-111-11-11-11-11-111111-|-000-000-00-00-00-00-00-00-|-0~-||
   ... ... .. .. .. .. ......   ... ... .. .. .. .. .. ..






Rhythm Guitar-[Jeremy DePoyster]-Right Speaker

Intro 00:00
e||-----------------------------------------------------|
B||-----------------------------------------------------|
G||------------DO NOT PLAY ANYTHING HERE----------------|
D||-----------------------------------------------------|
A||-----------------------------------------------------|
D||-----------------------------------------------------|
"Ohh and yet i've been cleansed"

 00:11
e|--------------------------------------------------------------------|
B|--------------------------------------------------------------------|
G|-10-10101010101010101010--14141414--101010101010101010101010101010--|
D|- x- x x x x x x x x x x-- x x x x-- x x x x x x x x x x x x x x x--|
A|- 8- 8 8 8 8 8 8 8 8 8 8--12121212-- 8 8 8 8 8 8 8 8 8 8 8 8 8 8 8--|
D|--------------------------------------------------------------------|

e|----------------------------------------------------|
B|----------------------------------------------------|
G|--141414/----141414/----141414/----1212121212121212-|
D|0- x x x--00- x x x--00- x x x--00- x x x x x x x x-|
A|0-121212/-00-121212/-00-121212/-00-1010101010101010-|
D|0---------00---------00---------00------------------|

e|------------------------------------------------------------------|
B|------------------------------------------------------------------|
G|-10-1010101010101010101010101010-12121212121212121212121212121212-|
D|- x- x x x x x x x x x x x x x x- x x x x x x x x x x x x x x x x-|
A|- 8- 8 8 8 8 8 8 8 8 8 8 8 8 8 8-10101010101010101010101010101010-|
D|------------------------------------------------------------------|

e|----------------------------------------------------|
B|----------------------------------------------------|
G|--141414/----141414/----141414/----1212121212121212-|
D|0- x x x--00- x x x--00- x x x--00- x x x x x x x x-|
A|0-121212/-00-121212/-00-121212/-00-1010101010101010-|
D|0---------00---------00---------00------------------|

 00:31
e|---------------------------------------|
B|---------------------------------------|
G|-7777-7-7-7-7-7777--7777-7-7-7777-7777-|
D|-xxxx-x-x-x-x-xxxx--xxxx-x-x-xxxx-xxxx-|
A|-5555-5-5-5-5-5555--5555-5-5-5555-5555-|
D|---------------------------------------|
                                                   x2
e|---------------------------------------------------|-------|
B|---------------------------------------------------|-------|
G|-7777-7-99-1010-99-77-55-33333333\1010101010101010-|-------|
D|-xxxx-x-xx- x x-xx-xx-xx-xxxxxxxx- x x x x x x x x-|-0~~~~~|
A|-5555-5-77- 8 8-77-55-33-11111111\ 8 8 8 8 8 8 8 8-|-0~~~~~|
D|---------------------------------------------------|-0~~~~~|
background guitar plays                 x2
e|----------------------------------------|-------|
B|----------------------------------------|-------|
G|----------------------------------------|-------|
D|----------------------------------------|-0~~~~~|
A|-0000-0-0-0000-0000--0000-0-0-0000-0000-|-0~~~~~|
D|-0000-0-0-0000-0000--0000-0-0-0000-0000-|-0~~~~~|

Chorus 00:48                                                      
e|--------------------------|
B|--------------------------|
G|--------------------------|
D|--------------------------|
A|-----------------PICK-----|
D|------------------SLIDE---|
"The vision that  i have seen 
e|--------------------------------------------------------------------|
B|--------------------------------------------------------------------|
G|-7777777777777777-9999999999999999-10101010101010101010101010101010-|
D|-xxxxxxxxxxxxxxxx-xxxxxxxxxxxxxxxx- x x x x x x x x x x x x x x x x-|
A|-5555555555555555-7777777777777777- 8 8 8 8 8 8 8 8 8 8 8 8 8 8 8 8-|
D|--------------------------------------------------------------------|   
      this is the      action that             spawns from the
e|-----------------------------------|
B|-----------------------------------|
G|-1212121212121212-1414141414141414-|
D|- x x x x x x x x- x x x x x x x x-|
A|-1010101010101010-1212121212121212-|
D|-----------------------------------|
       end
e|--------------------------------------------------------------------|
B|--------------------------------------------------------------------|
G|-7777777777777777-9999999999999999-10101010101010101010101010101010-|
D|-xxxxxxxxxxxxxxxx-xxxxxxxxxxxxxxxx- x x x x x x x x x x x x x x x x-|
A|-5555555555555555-7777777777777777- 8 8 8 8 8 8 8 8 8 8 8 8 8 8 8 8-|
D|--------------------------------------------------------------------| 
  for the longest time  ive been           watching          the
e|-----------------------------------|
B|-----------------------------------|
G|-1212121212121212-1414141414141414-|
D|- x x x x x x x x- x x x x x x x x-|
A|-1010101010101010-1212121212121212-|
D|-----------------------------------|
        world    breathe      again"


Breakdown 01:14        x4        x4                    x4
e|-----------------------|---------|-------------|-------|
B|-----------------------|---------|-------------|-------|
G|-----------------------|---------|-------------|-------|
D|-----------------------|---------|-------------|-------|
A|-00000-0-0-00000-00000-|-00000-0-|-------------|-0~0~~-|
D|-00000-0-0-00000-00000-|-00000-0-|-------------|-0~0~~-|
   ..... . . ..... .....   ..... .                 . .
cont.
e|-------------------|
B|-------------------|
G|-------------------|
D|-0~-0000000000-----|
A|-0~-0000000000-0~~-|
D|-0~-0000000000-0~~-|
                .

chorus 2 01:52
"Examine these, these beautiful faces keep singing now, keep singing
e|----------------------------------------------------------------------|
B|----------------------------------------------------------------------|
G|----------------------------------------------------------------------|
D|-00000000000000000-3333333333333333-5555555555555555-8888888888888888-|
A|-00000000000000000-3333333333333333-5555555555555555-8888888888888888-|
D|-00000000000000000-3333333333333333-5555555555555555-8888888888888888-|
   nowwwwwww         examine these    beautiful     faces   keep singing
e|----------------------------------------------------------------------|
B|----------------------------------------------------------------------|
G|----------------------------------------------------------------------|
D|-00000000000000000-3333333333333333-5555555555555555-8888888888888888-|
A|-00000000000000000-3333333333333333-5555555555555555-8888888888888888-|
D|-00000000000000000-3333333333333333-5555555555555555-8888888888888888-|
   nowwwwwww       examine these      beautiful     faces        alone"
e|-----------|
B|-----------|
G|-----------|
D|-0~~~~~~~~-|
A|-0~~~PICK--|
E|-0~~~SLIDE-|


solo 02:41
e|----------------|
B|----------------|
G|----------------|
D|-----101010-555-|
A|-----101010-555-|
D|-----101010-555-|
                                                                x2
e|----------------------------------------------------------------|
B|----------------------------------------------------------------|
G|----------------------------------------------------------------|
D|-----------------------------------------------------101010-555-|
A|-00-15p0------0-17p0------0-----------00-15p0------0-101010-555-|
D|-00------17p0-0------19p0-0-17p0-19p0-00------17p0-0-101010-555-|
   ..           .           .           ..           .
                                                        x2
e|--------------------------------------------------------|
B|--------------------------------------------------------|
G|------------------------------------------------555-----|
D|------------------------------------------------XXX-555-|
A|-00-3p0------0-5p0------0---------00-3p0------0-333-555-|
D|-00------5p0-0------7p0-0-5p0-7p0-00------5p0-0-----555-|
   ..          .         .          ..          .


Outro/Last Breakdown 03:06            x4
e|----------|---------------------------|-------|
B|----------|---------------------------|-------|
G|----------|---------------------------|-------|
D|0~~~~~----|---------------------------|-------|
A|0~~~~~0~~-|-000-000-00-00-00-00-00-00-|-<5>~~-|
D|0~~~~~0~~-|-000-000-00-00-00-00-00-00-|-------|
        .     ... ... .. .. .. .. .. ..
cont.                       x2                          x2
e|----------------------------|---------------------------|----||
B|----------------------------|---------------------------|----||
G|----------------------------|---------------------------|----||
D|----------------------------|---------------------------|-0~-||
A|-000-000-00-00-00-00-000000-|-000-000-00-00-00-00-00-00-|-0~-||
D|-111-111-11-11-11-11-111111-|-000-000-00-00-00-00-00-00-|-0~-||
   ... ... .. .. .. .. ......   ... ... .. .. .. .. .. ..

            
            
Suggest correction
Creating personal tab
Creating personal tab
You can edit any tab online and save it as your Personal.

You can edit, replace or remove any tab part or add personal notes – all changes will be seen only by you.

Personal tabs can be accessed anytime from any device, even offline.
Learn more »
comments
print report bad tab
8 comments total. Showing first comments.
0 reply
punkkid1582 94 Dec 04, 2009 01:12 PM

nice tab. id replace the 9 in the beginning with 12
x x
12 14

0 reply
punkkid1582 94 Dec 04, 2009 01:13 PM

sorry that came out weird. i meant:

14

0 reply
punkkid1582 94 Dec 04, 2009 01:14 PM

wtf. **** this website's format,

guest
You may want to rate the tab now too:
select rating
Wanna post a correction for this tab? Suggest correction