Oops, an error
Loading. Please wait.

Modeify The Pronunciation bass

version 1
version 1

Whole song

Interactive

2,983 views 1 this week
5 commentsread comments
1 2 3 4 5
x 4
add to favorites
×
Save as Personal and add changes to this tab that will be seen only by you. Learn more ›
×
You can save this tab as Personal to edit and correct it or add notes. All changes will be seen only by you. Learn more »
launch autoscroll
font size
0
reset
guitar tuner
edit
Autoscroll
slow
fast
+/-
esc
set tempo
stop
Modeify the Pronunciation- Bass Tablature
Album: Dear Love: A Beautiful Dischord
Artist: The Devil Wears Prada

DROP D TUNING: strings are low to high: D, A, D, G

Begins like this (0:00-0:13)
G|----------------------------------------------------|
D|----------------------------------------------------|
A|----------------------------------------------------|
D|--00000--0~---00000--0~---00000--0~---00000--0~-----|
    .....       .....       .....       .....

After... (0:14-0:27)

G|------------------------------------------------------------|
D|------------------------------------------------------------|
A|------------------------------------------------------------|
D|--0-4313-4313--0-4313-4313--3^-0-4313-4313--0-4313-4313--0--|
    
Next.. (0:28-0:32)
G|--------------------------------------------------|
D|--------------------------------------------------|x1
A|---8-10-7-8-10-7-8-10-8-10-7-8--------------------|
D|----0--0-0-0--0-0-0--0-0--0-0-----7h9-5h7-2~------|

After that, you do this... (0:33-0:42)
G|-------------------------------------------------------|
D|-------------------------------------------------------|
A|---8-10-7-8-10-7-8-10-----------------8-10-7-8---------|
D|----0--0-0-0--0-0-0--0---x3---Then..---0--0-0-----5-4~-|

Then pick semi-fast, eighth notes(0:43-0:51)
G|----------------------------------------------------------------------|
D|-----------------------------------------------------------------8-7~-|
A|---8x4-10x4-7x4-8x4-10x4-7x4-8x4-10x4----x3------8x4-10x4-7x4-8x4-----|
D|------------------------------------------Then..----------------------|

awesome part (0:52-1:04)
G|--------------------------------------|
D|--------------------------------------|x4
A|--------------------------------------|
D|--0-4-3-1--000-444-333-1--------------|
    . . .    ... ... ...

In the part after that(1:05-1:11)
G|------------------------------|
D|------------------------------|x2
A|------------------------------|
D|-000-000-00-00-0-0-0-0-0-0----|
   ... ... .. .. . . . . . .

.. huge bass slide from 1 to 18

HUGE BREAK DOWN (1:12-1:24)
G|--------------------------------------|
D|--------------------------------------|
A|--------------------------------------|      
D|--000-000---00-00--10-7-8-------------|
    ... ...   .. ..

Then.. (1:26-1:40)
G|------------------------------------------------------------------------|
D|------------------------------------------------------------------------|
A|------------------------------------------------------------------------|
D|-10-7-8-000-000-10-7-8-00-10-7-8-00--000-000-10-7-8---101010-999-101010-|

Havent figured the space between these two places yet

before he starts singin
G|-----|
D|-----|
A|-----|
D|-0~--|

End of it(2:33-4:19)
G|------------|
D|---8-7------|x6
A|-------8-5--|
D|------------|

G|--------------------|
D|--------------------|
A|--------------------|
D|--------------------|

Then Hit A Big 0 on the D string at the end At 4:20...Like This
G|------|
D|------|
A|------|
D|--0~--|


            
            
Suggest correction
Creating personal tab
Creating personal tab
You can edit any tab online and save it as your Personal.

You can edit, replace or remove any tab part or add personal notes – all changes will be seen only by you.

Personal tabs can be accessed anytime from any device, even offline.
Learn more »
comments
print report bad tab
5 comments total. Showing first comments.
0 reply
xGunToTheHeadx 10 Feb 13, 2007 11:53 AM

I mean this in the kindest way possible lol, but your tab is VERY VERY VERY wrong

0 reply
Skat64er 20 Feb 19, 2007 12:35 PM

way to copy the guitar tab for this and call it a bass tab, you even left out the parts he did

0 reply
DirtyWilliam 10 Oct 03, 2007 09:48 PM

Terrible.

guest
You may want to rate the tab now too:
select rating
Wanna post a correction for this tab? Suggest correction