Oops, an error
Loading. Please wait.

Still Fly tab

version 2
version 2

Whole song

Interactive

11,804 views 1 this week
4 commentsread comments
1 2 3 4 5
x 8
add to favorites
×
Save as Personal and add changes to this tab that will be seen only by you. Learn more ›
×
You can save this tab as Personal to edit and correct it or add notes. All changes will be seen only by you. Learn more »
launch autoscroll
font size
0
reset
how to read this tab
guitar tuner
edit
Autoscroll
slow
fast
+/-
esc
set tempo
stop
Author
                            ------------The Devil Wears Prada-------------|
                                 ------------Still Fly--------------------|
                                       ----Punk Goes Crunk----------------|

This is my first tab so hope it helps.  This song is really fun to play and easy at that.  Enjoy!!

Tuning: Drop Deazey


Guitar 1 Intro
-----------------------------------------------8h6h5-------|
-------1010--8-----8--------------------10-10--------------|
---7------------10-----10---7h9p7----7---------------------|
-----------------------------------------------------------|
-----------------------------------------------------------|
-----------------------------------------------------------|

Guitar 2

-----------------------------------------------------------|
-----------------------------------------------------------|
-----------------------------------------------------------|
7------------------------------------7---------------------|
7------------------------------------7---------------------|
7------------------------------------7---------------------|

Palm Mute 1st time, let ring 2nd

-----------------------------------------------------------------------|
-----------------------------------------------------------------------|
-----------------------------------------------------------------------|
777-777-777------555-555-555------333-333-333------222-222-222---------|  X2
777-777-777------555-555-555------333-333-333------222-222-222---------|
777-777-777------555-555-555------333-333-333------222-222-222---------|


-----------------------------------------------------------|
-----------------------------------------------------------|
-----------------------------------------------------------|
77-77-77------55-55-55------33-33-33------22-22-22-2h7-----|
77-77-77------55-55-55------33-33-33------22-22-22-2h7-----|
77-77-77------55-55-55------33-33-33------22-22-22-2h7-----|


---------------------------------------------------------------------|
---------------------------------------------------------------------|
---------------------------------------------------------------------|
777-777-777-777-777-777-777-777------555-555-555-555-555-555-555-555-|
777-777-777-777-777-777-777-777------555-555-555-555-555-555-555-555-|
777-777-777-777-777-777-777-777------555-555-555-555-555-555-555-555-|

333-333-333-333-333-333-333-333------2-------------------------------|
333-333-333-333-333-333-333-333------2-------------------------------|
333-333-333-333-333-333-333-333------2-------------------------------|


----------------------------------------------------------------------------------------------|
----------------------------------------------------------------------------------------------|
----------------------------------------------------------------------------------------------|
77-77-77-77-77-7777----55-55-55-55-55-5555------33-33-33-33-33-3333------22-22-22-22-22-2222--|
77-77-77-77-77-7777----55-55-55-55-55-5555------33-33-33-33-33-3333------22-22-22-22-22-2222--|
77-77-77-77-77-7777----55-55-55-55-55-5555------33-33-33-33-33-3333------22-22-22-22-22-2222--|


---------------------------------------------------------------------|
---------------------------------------------------------------------|
---------------------------------------------------------------------|
777-777-777-777-777-777-777-777------555-555-555-555-555-555-555-555-|
777-777-777-777-777-777-777-777------555-555-555-555-555-555-555-555-|
777-777-777-777-777-777-777-777------555-555-555-555-555-555-555-555-|

333-333-333-333-333-333-333-333------222-222-222-222-222-222-222-222-|
333-333-333-333-333-333-333-333------222-222-222-222-222-222-222-222-|
333-333-333-333-333-333-333-333------222-222-222-222-222-222-222-222-|

Chorus

Guitar 1 repeats intro

Guitar 2


-----------------------------------------------------------|
-----------------------------------------------------------|
-----------------------------------------------------------|   X 2
7-77-77-7777--5-55-55-5555--3-33-33-3333--2-22-22-2222-----|
7-77-77-7777--5-55-55-5555--3-33-33-3333--2-22-22-2222-----|
7-77-77-7777--5-55-55-5555--3-33-33-3333--2-22-22-2222-----|


-------------------------------------------------------|
-------------------------------------------------------|
-------------------------------------------------------|   X 2
777-777-777--555-555-555--333-333-333--222-222-222-----|
777-777-777--555-555-555--333-333-333--222-222-222-----|
777-777-777--555-555-555--333-333-333--222-222-222-----|


Verse 2

Guitar 1 (come in on second time)
I know this part is not 100%
-----------------------------------------------------------|
-----------------------------------------------------------|
-7------------9-------------7--------------5---------------|
-----------------------------------------------------------|
-----------------------------------------------------------|
-----------------------------------------------------------|


Guitar 2
-----------------------------------------------------------|
-----------------------------------------------------------|
-----------------------------------------------------------|   X2
77-77-77------55-55-55------33-33-33------22-22-22---------|
77-77-77------55-55-55------33-33-33------22-22-22---------|
77-77-77------55-55-55------33-33-33------22-22-22---------|


-----------------------------------------------------------|
-----------------------------------------------------------|
-----------------------------------------------------------|
77-77-7777------55-55-5555------33-33-3333------22-22-2222-|
77-77-7777------55-55-5555------33-33-3333------22-22-2222-|
77-77-7777------55-55-5555------33-33-3333------22-22-2222-|


-----------------------------------------------------------|
-----------------------------------------------------------|
-----------------------------------------------------------|
-7--------------5---------------3---------------22-0-------|
-7--------------5---------------3---------------22-0-------|
-7--------------5---------------3---------------22-0-------|


-----------------------------------------------------------|
-----------------------------------------------------------|
-----------------------------------------------------------|
-00-00-------0000-000-00-00-00-00-----00-00-0000-000-00-00-|
-00-00-------0000-000-00-00-00-00-----00-00-0000-000-00-00-|
-00-00-------0000-000-00-00-00-00-----00-00-0000-000-00-00-|


-----------------------------------------------------------|
-----------------------------------------------------------|
-----------------------------------------------------------|
-0000000--00--00000--00000------0000000--00--00000--00000--|
-0000000--00--00000--00000------0000000--00--00000--00000--|
-0000000--00--00000--00000------0000000--00--00000--00000--|


-----------------------------------------------------------|
-----------------------------------------------------------|
-----------------------------------------------------------|
-222-333-55--7777---5555---3333---2222222-3333---555555----|
-222-333-55--7777---5555---3333---2222222-3333---555555----|
-222-333-55--7777---5555---3333---2222222-3333---555555----|

Guitar 1:
--------------------------------------------------------------|
--------------------------------------------------------------|
--9-7-5--9-7-10--9-7-5----------------------------------------|
--------------------------------------------------------------|
--------------------------------------------------------------|
--------------------------------------------------------------|

-----------------------------------------------------------|
-----------------------------------------------------------|
-----------------------------------------------------------|
-7777---5555---3333---2222222233333333-----55555555555555--|
-7777---5555---3333---2222222233333333-----55555555555555--|
-7777---5555---3333---2222222233333333-----55555555555555--|

-----------------------------------------------------------|
-----------------------------------------------------------|
-----------------------------------------------------------|
-77777777777777----33333333333333----22222222222222--------|
-77777777777777----33333333333333----22222222222222--------|
-77777777777777----33333333333333----22222222222222--------|

------------------------------------------------------------|
------------------------------------------------------------|
------------------------------------------------------------|
-7-77-77-77-77-77-77-77--5-55-55-55-55-55-55-55--3-33-33-33-|
-7-77-77-77-77-77-77-77--5-55-55-55-55-55-55-55--3-33-33-33-|
-7-77-77-77-77-77-77-77--5-55-55-55-55-55-55-55--3-33-33-33-|

-----------------------------------------------------------|
-----------------------------------------------------------|
-----------------------------------------------------------|
-33-33-33-33---2-22-22-22----------------------------------|
-33-33-33-33---2-22-22-22----------------------------------|
-33-33-33-33---2-22-22-22----------------------------------|

Back to Chorus

Hope it helped!  Please comment and rate!! Thank you.
Shane

            
            
Suggest correction
Creating personal tab
Creating personal tab
You can edit any tab online and save it as your Personal.

You can edit, replace or remove any tab part or add personal notes – all changes will be seen only by you.

Personal tabs can be accessed anytime from any device, even offline.
Learn more »
comments
print report bad tab
4 comments total. Showing first comments. show 1 bad comment
+6 reply
BlCkBrKnHaRt 10 May 09, 2008 08:02 AM

its a rap song made rock buddy.
course its simple riffs >.

+2 reply
demonhunter418 10 May 26, 2008 07:36 PM

you don't have to have smoking riffs to be an amazing guitarist.

guest
You may want to rate the tab now too:
select rating
Wanna post a correction for this tab? Suggest correction