Oops, an error
Loading. Please wait.

Transit Blues tab

version 2
version 2

Whole song

Interactive

109 views 3 this week
no commentswrite comment
1 2 3 4 5
3 more votes to show rating
add to favorites
×
Save as Personal and add changes to this tab that will be seen only by you. Learn more ›
×
You can save this tab as Personal to edit and correct it or add notes. All changes will be seen only by you. Learn more »
launch autoscroll
font size
0
reset
how to read this tab
guitar tuner
edit
Autoscroll
slow
fast
+/-
esc
set tempo
stop
[Transit Blues]
[Transit Blues]
[The DeviL Wears Prada]

Tuning: B GB B E Ab Db 
Playthrough: https://www.youtube.com/watch?v=umkEU6Vlz9k

[Riff 1] - [00:00] - [00:18]
- -----------------------------------------------------------------
- -----------------------------------------------------------------
- -----------------------------------------------------------------
- -----------------------------------------------------------------
- -5-------5-------5-------5-------1-------1-------1-------1-------
- ---0-3-0---0-3-0---0-3-0---0-3-0---0-3-0---0-3-0---0-3-0---0-3-0-

- -----------------------------------------------------------------
- -----------------------------------------------------------------
- -----------------------------------------------------------------
- -----------------------------------1---1---1---1---4---4-4\------
- -----1-------1-------1-------1---0-1---1---1---1-0-4---4-4\------
- -2-2---2-2-2---2-2-2---2-2-2---2-0-1---1---1---1-0-4---4-4\------
PM                                 .               .

- -----------------------------------------------------------------
- -----------------------------------------------------------------
- -----------------------------------------------------------------
- -----------------------------------------------------------------
- -5-------5-------5-------5-------1-------1-------1-------1-------
- ---0-3-0---0-3-0---0-3-0---0-3-0---0-3-0---0-3-0---0-3-0---0-3-0-

- -----------------------------------------------------------------
- -----------------------------------------------------------------
- -----------------------------------------------------------------
- -----------------------------------------------------------------
- -----1-------1-------1-------1---0-0-0-0-0-0-0-0-----------------
- -2-2---2-2-2---2-2-2---2-2-2---2-1-1-1-1-1-1-1-1-1b1b1b1b1r1r1r1- gradually bend and really note
PM                                 ...............................

[Riff 2a] - [00:18] - [00:55] - [x2]
- -----------------------------------------------------------------
- -----------------------------------------------------------------
- -7---------------7---------------7---------------7---------------
- -------7-----7---------7-----7---------7-----7---------7-----7---
- -----------------------------------------------------------------
- -----------------------------------------------------------------

- -----------------------------------------------------------------
- -5---------------5---------------5---------------6---------------
- -----------------------------------------------------------------
- -------7-----7---------7-----7---------7-----7---------7-----7---
- -----------------------------------------------------------------
- -----------------------------------------------------------------

- -----------------------------------------------------------------
- -----------------------------------------------------------------
- -7---------------7---------------7---------------7---------------
- -------7-----7---------7-----7---------7-----7---------7-----7---
- -----------------------------------------------------------------
- -----------------------------------------------------------------

- -----------------------------------------------------------------
- -----------------------------------------------------------------
- -5---------------5---------------5---------------5---------------
- -------7-----7---------7-----7---------7-----7---------7-----7---
- -----------------------------------------------------------------
- -----------------------------------------------------------------

[Riff 2b] - [00:36] - [00:55]
- -----------------------------------------------------------------
- -----------------------------------------------------------------
- -----------------------------------------------------------------
- -----------------------------------------------------------------
- -5-------5-------5-------5-------5-------5-------5-------5-------
- ---0-3-0---0-3-0---0-3-0---0-3-0---0-3-0---0-3-0---0-3-0---0-3-0-
PM   .....   .....   .....   .....   .....   .....   .....   .....

- -----------------------------------------------------------------
- -----------------------------------------------------------------
- -----------------------------------------------------------------
- -----------------------------------------------------------------
- -1-------1-------1-------1-------1-------1-------1-------1-------
- ---0-3-0---0-3-0---0-3-0---0-3-0---0-3-0---0-3-0---0-3-0---0-3-0-
PM   .....   .....   .....   .....   .....   .....   .....   .....

- -----------------------------------------------------------------
- -----------------------------------------------------------------
- -----------------------------------------------------------------
- -----------------------------------------------------------------
- -5-------5-------5-------5-------5-------5-------5-------5-------
- ---0-3-0---0-3-0---0-3-0---0-3-0---0-3-0---0-3-0---0-3-0---0-3-0-

- -----------------------------------------------------------------
- -----------------------------------------------------------------
- -----------------------------------------------------------------
- -----------------------------------------------------------------
- -1-------1-------1-------1-------1-------1-------1-------1-------
- ---0-3-0---0-3-0---0-3-0---0-3-0---0-3-0---0-3-0---0-3-0---------

[Riff 3] - [00:55] - [01:13]
- -----------------------------------------------------------------
- -----------------------------------------------------------------
- -----------------------------------------------------------------
- -----------------------------------------------------------------
- -5-------5-------5-------5-------1-------1-------1-------1-------
- ---0-3-0---0-3-0---0-3-0---0-3-0---0-3-0---0-3-0---0-3-0---0-3-0-

- -----------------------------------------------------------------
- -----------------------------------------------------------------
- -----------------------------------------------------------------
- -----------------------------------1---1---1---1---4---4-4\------
- -----1-------1-------1-------1---0-1---1---1---1-0-4---4-4\------
- -2-2---2-2-2---2-2-2---2-2-2---2-0-1---1---1---1-0-4---4-4\------
PM                                 .               .

- -----------------------------------------------------------------
- -----------------------------------------------------------------
- -----------------------------------------------------------------
- -----------------------------------------------------------------
- -5-------5-------5-------5-------1-------1-------1-------1-------
- ---0-3-0---0-3-0---0-3-0---0-3-0---0-3-0---0-3-0---0-3-0---0-3-0-

- -----------------------------------------------------------------
- -----------------------------------------------------------------
- -----------------------------------------------------------------
- -----------------------------------------------------------------
- -----1-------1-------1-------1---0-0-0-0-0-0-0-0-----------------
- -2-2---2-2-2---2-2-2---2-2-2---2-1-1-1-1-1-1-1-1-1b1b1b1b1r1r1r1- gradually bend and release note
PM                                 ...............

[Riff 4] - [01:13] - [01:32] - [x2]
- -----------------------------------------------------------------
- -----------------6-------------------------------5---------------
- -----------------=-----7-------------------------=-----7---------
- -0---------------------------7---0---------------------------7---
- -0-------------------------------0-------------------------------
- -0-------------------------------0-------------------------------

- -----------------------------------------------------------------
- -----------------------------------------------------------------
- -----------------------------------------------------------------
- -----------------8-----5-----------------------------------------
- -------------------------------------------------7-----4---------
- -8---------------------------8\--2---------------------------7---

[Riff 5a] - [01:32] - [02:01]
- -----------------------------------------------------------------
- -----------------------------------------------------------------
- -----------------------------------------------------------------
- -----------------------------------------------------------------
- -----------------5\------------------------------8\--------------
- -3\----0-----2/--------0-----2---3\----0-----2/--------0-----2---

- -----------------------------------------------------------------
- -----------------------------------------------------------------
- -------------------------------------------------10--------------
- -----------------------------------------------------------------
- -----------------5\--------------------7-------------------------
- -3\----0-----2/--------0-----2/--8-----------8---------8\----2---

- -----------------------------------------------------------------
- -----------------------------------------------------------------
- -----------------------------------------------------------------
- -----------------------------------------------------------------
- -----------------5\------------------------------8\--------------
- -3\----0-----2/--------0-----2---3\----0-----2/--------0-----2---

- -----------------------------------------------------------------
- -----------------------------------------------------------------
- -------------------------------------------------10--------------
- -----------------------------------------------------------------
- -----------------5\--------------------7-------------------------
- -3\----0-----2/--------0-----2/--8-----------8---------8\----2---

- -----------------------------------------------------------------
- -----------------------------------------------------------------
- -----------------------------------------------------------------
- -----------------------------------------------------------------
- -----------------5\------------------------------8\--------------
- -3\----0-----2/--------0-----2---3\----0-----2/--------0-----2---

- -------------------------------------------------------------------------------------------------
- -------------------------------------------------------------------------------------------------
- -------------------------------------------------10------------------------------9---------------
- -------------------------------------------------------------------------------------------------
- -----------------5\--------------------7-------------------------------7---------------7---------
- -3\----0-----2/--------0-----2/--8-----------8---------8\----2---7-----------7---------------7\--

[Riff 5b] - [01:41] - [02:01]
- -----------------------------------------------------------------
- -10----10----10--10----10----10--10----10----10--10----10----10--
- -x-----x-----x---x-----x-----x---x-----x-----x---x-----x-----x---
- -7-----7-----7---7-----7-----7---7-----7-----7---7-----7-----7---
- -----------------------------------------------------------------
- -----------------------------------------------------------------

- -----------------------------------------------------------------
- -9-----9-----9---9-----9-----9-----------------------------------
- -x-----x-----x---x-----x-----x---10----9-----10--10----9-----10--
- -7-----7-----7---7-----7-----7---x-----x-----x---x-----x-----x---
- ---------------------------------8-----7-----8---8-----7-----8---
- -----------------------------------------------------------------

- -----------------------------------------------------------------
- -10----10----10--10----10----10--10----10----10--10----10----10--
- -x-----x-----x---x-----x-----x---x-----x-----x---x-----x-----x---
- -7-----7-----7---7-----7-----7---7-----7-----7---7-----7-----7---
- -----------------------------------------------------------------
- -----------------------------------------------------------------


- -------------------------------------------------------------------------------------------------
- -9-----9-----9---9-----9-----9-------------------------------------------------------------------
- -x-----x-----x---x-----x-----x---10----9-----10--10----9-----10--9-----9-----9---9-----9-----9---
- -7-----7-----7---7-----7-----7---x-----x-----x---x-----x-----x---x-----x-----x---x-----x-----x---
- ---------------------------------8-----7-----8---8-----7-----8---7-----7-----7---7-----7-----7---
- -------------------------------------------------------------------------------------------------

[Riff 6] - [02:01] - [02:20]
- -----------------------------------------------------------------
- -----------------6-------------------------------5---------------
- -----------------=-----7-------------------------=-----7---------
- -0---------------------------7---0---------------------------7---
- -0-------------------------------0-------------------------------
- -0-------------------------------0-------------------------------

- -----------------------------------------------------------------
- -----------------------------------------------------------------
- -----------------------------------------------------------------
- -----------------8-----5-----------------------------------------
- -------------------------------------------------7-----4---------
- -8---------------------------8\--2---------------------------7---

- -----------------------------------------------------------------
- -----------------6-------------------------------5---------------
- -----------------=-----7-------------------------=-----7---------
- -0---------------------------7---0---------------------------7---
- -0-------------------------------0-------------------------------
- -0-------------------------------0-------------------------------

- -----------------------------------------------------------------
- -----------------------------------------------------------------
- -----------------------------------------------------------------
- -----------------8-----5-----------------------------------------
- -----------------------------------------------------------------
- -8---------------------------8~----------------------------------

[Riff 2a] - [02:01] - [02:20]

[Riff 7] - [02:20] - [02:22]
- ---------------------------------
- ---------------------------------
- -7~------------------------------
- -7~------------------------------
- ---------------------------------
- ---------------------------------

[Riff 8a] - [02:22] - [03:01]
- -----------------------------------------------------------------
- -----------------------------------------------------------------
- -----------------------------------------------------------------
- -----------------------------------------------------------------
- -5-------5-------5-------5-------1-------1-------1-------1-------
- ---0-3-0---0-3-0---0-3-0---0-3-0---0-3-0---0-3-0---0-3-0---0-3-0-

- -----------------------------------------------------------------
- -----------------------------------------------------------------
- -----------------------------------------------------------------
- -----------------------------------------------------------------
- ---------------------------------0-0-0-0-0-0-0-0-----------------
- -2-2-2-2-2-2-2-2-2b2b2b2b2r2r2r2-1-1-1-1-1-1-1-1-1b1b1b1b1r1r1r1- gradually bend and release note
PM                                 ...............................

- -----------------------------------------------------------------
- -----------------------------------------------------------------
- -----------------------------------------------------------------
- -----------------------------------------------------------------
- -5-------5-------5-------5-------1-------1-------1-------1-------
- ---0-3-0---0-3-0---0-3-0---0-3-0---0-3-0---0-3-0---0-3-0---0-3-0-

- -------------------------------------------------------------------------------------------------------
- -------------------------------------------------------------------------------------------------------
- -------------------------------------------------------------------------------------------------------
- -----------------------------------------------------------------------------------------------0-------
- ---------------------------------0-0-0-0-0-0-0-0-0-0-0-0-0-0-0-000-0-0-0-0-0-0-----------------0-------
- -2-2-2-2-2-2-2-2-2b2b2b2b2r2r2r2-1-1-1-1-1-1-1-1-1-1-1-1-1-1-1-111-1-1-1-1-1-1-1b1b1b1b1r1r1r1-0-------
PM                                 .............................................................

[Riff 8b] - [02:22] - [02:43]
- -8--8--8--8--8--8--8--8--8--8--8--8--8--8--8--8--8--8--8--8--8--8--8--8--8--8--8--8--8--8--8--8--
- -10-10-10-10-10-10-10b10b10h10h10h10h10h10h10h10-10-10-10-10-10-10-10b10b10h10h10h10h10h10h10h10-
- -------------------------------------------------------------------------------------------------
- -------------------------------------------------------------------------------------------------
- -------------------------------------------------------------------------------------------------
- -------------------------------------------------------------------------------------------------

gradually bend and hold note

- -----------------------------------------------------------------
- -5-5-5-5-5-5-5-5-5-5-5-5-5-5-5-5-5-5-5-5-5-5-5-5-5-5-5-5-5-5-5-5-
- -8-8-8-8-8-8-8b8b8h8h8h8h8h8h8h8-8-8-8-8-8-8-8b8b8h8h8h8h8h8h8h8-
- -----------------------------------------------------------------
- -----------------------------------------------------------------
- -----------------------------------------------------------------

- -8--8--8--8--8--8--8--8--8--8--8--8--8--8--8--8--8--8--8--8--8--8--8--8--8--8--8--8--8--8--8--8--
- -10-10-10-10-10-10-10b10b10h10h10h10h10h10h10h10-10-10-10-10-10-10-10b10b10h10h10h10h10h10h10h10-
- -------------------------------------------------------------------------------------------------
- -------------------------------------------------------------------------------------------------
- -------------------------------------------------------------------------------------------------
- -------------------------------------------------------------------------------------------------

- -------------------------------------------------------------------------------------------------
- -5-5-5-5-5-5-5-5-5-5-5-5-5-5-5-5-5-5-5-5-5-5-5-5-5-5-5-5-5-5-5-5-5-5-5-5-5-5-5-5-5-5-5-5-5-5-5-5-
- -8-8-8-8-8-8-8b8b8h8h8h8h8h8h8h8-8-8-8-8-8-8-8b8b8h8h8h8h8h8h8h8-8-8-8-8-8-8-8b8b8h8h8h8h8h8h8h8-
- -------------------------------------------------------------------------------------------------
- -------------------------------------------------------------------------------------------------
- -------------------------------------------------------------------------------------------------

[Riff 2a] - [02:43] - [03:01]
[Riff 7] - [03:01] - [03:20]

[Symbols]

PM... Palm Mute notes with (...) under them
AP... Alternate Pick notes with (...) under them
h     Hammer On
p     Pull Off
[ ]   Harmonic
/     Slide Up
\     Slide Down
x     Dead Note
b     Bend
hb    Hold Bend
pb    Pre-Bend
r     Release Bend
(x )  Play Notes x amount of times
~     Let Ring
\\\   Pick Slide Down
///   Pick Slide Up
/ 3 \ Notes are triplets (3 notes in the space of two)
w\    Whammy Bar Down
w/    Whammy Bar Up
wh    Whammy Bar Hold
T     Right Hand Tap
L     Left Hand Tap

:)


            
            
Suggest correction
Creating personal tab
Creating personal tab
You can edit any tab online and save it as your Personal.

You can edit, replace or remove any tab part or add personal notes – all changes will be seen only by you.

Personal tabs can be accessed anytime from any device, even offline.
Learn more »
Give kudos to tab author, rate the tab!
1 2 3 4 5
comments
print report bad tab
guest
You may want to rate the tab now too:
select rating
Wanna post a correction for this tab? Suggest correction