Oops, an error
Loading. Please wait.

Wapakalypse tab

version 2
version 2

Whole song

Interactive

9,356 views 15 this week
6 commentsread comments
1 2 3 4 5
1 last vote to show rating
add to favorites
×
Save as Personal and add changes to this tab that will be seen only by you. Learn more ›
×
You can save this tab as Personal to edit and correct it or add notes. All changes will be seen only by you. Learn more »
launch autoscroll
font size
0
reset
how to read this tab
guitar tuner
edit
Autoscroll
slow
fast
+/-
esc
set tempo
stop
Wapakalypse
The Devil Wears Prada


C#|------------|-----------|-----------|-----------|
G#|o-----------|-----------|-----------|-----------|
 E|------------|-----------|-----------|-----------|
 B|------------|-----------|-----------|-----------|
F#|o-----------|-----------|-----------|-----------|
 B|---000-0-0--|--0-0-0-0--|--000-0-0--|--000-000--|

C#|-----------|-----------|-----------|------------|2X
G#|-----------|-----------|-----------|-----------o|
 E|-----------|-----------|-----------|------------|
 B|-----------|-----------|-----------|------------|
F#|-----------|-----------|-----------|-----------o|
 B|--000-0-0--|--0-0-0-0--|--000-000--|--000-000---|

C#|------------|-----------|-----------|-----------|
G#|------------|-----------|-----------|-----------|
 E|------------|-----------|-----------|-----------|
 B|------------|-----------|-----------|-----------|
F#|------------|-----------|-----------|-----------|
 B|---000-0-0--|--0-0-0-0--|--000-0-0--|--000-000--|

C#|-----------|-----------|-----------|-----------|
G#|-----------|-----------|-----------|-----------|
 E|-----------|-----------|-----------|-----------|
 B|-----------|-----------|-----------|-----------|
F#|-----------|-----------|-----------|-----------|
 B|--000-0-0--|--0-0-0-0--|--000-000--|--5b7b5~---|

C#|-----------|-----------|-----------|-----------|
G#|-----------|-----------|-----------|-----------|
 E|-----------|-----------|-----------|-----------|
 B|-----------|-----------|-----------|-----------|
F#|-----------|-----------|-----------|-----------|
 B|--000-0-0--|--0-0-0-0--|--000-0-0--|--000-000--|

C#|-----------|-----------|-----------|-----------|
G#|-----------|-----------|-----------|-----------|
 E|-----------|-----------|-----------|-----------|
 B|-----------|-----------|-----------|-----------|
F#|-----------|-----------|-----------|-----------|
 B|--000-0-0--|--0-0-0-0--|--000-000--|--000-000--|

C#|------------|-----------|-----------|-----------|
G#|------------|-----------|-----------|-----------|
 E|------------|-----------|-----------|-----------|
 B|------------|-----------|-----------|-----------|
F#|------------|-----------|-----------|-----------|
 B|---000-0-0--|--0-0-0-0--|--000-0-0--|--000-000--|

C#|-----------|-----------|-----------|-------|
G#|-----------|-----------|-----------|-------|
 E|-----------|-----------|-----------|-------|
 B|-----------|-----------|--3-3-3-3--|--3/5--|
F#|-----------|-----------|--3-3-3-3--|--3/5--|
 B|--000-0-0--|--0-0-0-0--|--3-3-3-3--|--3/5--|

C#|---------------|---------------|--------------|----------------|2X
G#|o----10-10-10--|--10-10-10-10--|----13-13-13--|--13-13-13-13--o|
 E|-----x--x--x---|--x--x--x--x---|----x--x--x---|--x--x--x--x----|
 B|-----7--7--7---|--7--7--7--7---|----10-10-10--|--10-10-10-10---|
F#|o--0-----------|---------------|--0-----------|---------------o|
 B|---0-----------|---------------|--0-----------|----------------|

C#|---------------|---------------|---------------|---------------|
G#|--11-11-11-11--|--11-11-11-11--|--11-11-11-11--|--11-11-11-11--|
 E|--10-10-10-10--|--10-10-10-10--|--10-10-10-10--|--10-10-10-10--|
 B|--8--8--8--8---|--8--8--8--8---|--8--8--8--8---|--8--8--8--8---|
F#|--8--8--8--8---|--8--8--8--8---|--8--8--8--8---|--8--8--8--8---|
 B|--8--8--8--8---|--8--8--8--8---|--8--8--8--8---|--8--8--8--8---|

C#|---------------|---------------|---------------|---------------|
G#|--11-11-11-11--|--11-11-11-11--|--11/13-13-13--|--13-13-13-13--|
 E|--10-10-10-10--|--10-10-10-10--|--10/12-12-12--|--12-12-12-12--|
 B|--8--8--8--8---|--8--8--8--8---|--8//10-10-10--|--10-10-10-10--|
F#|--8--8--8--8---|--8--8--8--8---|--8//10-10-10--|--10-10-10-10--|
 B|--8--8--8--8---|--8--8--8--8---|--8//10-10-10--|--10-10-10-10--|

C#|---------------|---------------|--------------|----------------|2X
G#|o----10-10-10--|--10-10-10-10--|----13-13-13--|--13-13-13-13--o|
 E|-----x--x--x---|--x--x--x--x---|----x--x--x---|--x--x--x--x----|
 B|-----7--7--7---|--7--7--7--7---|----10-10-10--|--10-10-10-10---|
F#|o--0-----------|---------------|--0-----------|---------------o|
 B|---0-----------|---------------|--0-----------|----------------|

C#|---------------|---------------|---------------|---------------|
G#|--11-11-11-11--|--11-11-11-11--|--11-11-11-11--|--11-11-11-11--|
 E|--10-10-10-10--|--10-10-10-10--|--10-10-10-10--|--10-10-10-10--|
 B|--8--8--8--8---|--8--8--8--8---|--8--8--8--8---|--8--8--8--8---|
F#|--8--8--8--8---|--8--8--8--8---|--8--8--8--8---|--8--8--8--8---|
 B|--8--8--8--8---|--8--8--8--8---|--8--8--8--8---|--8--8--8--8---|

C#|---------------|---------------|---------------|---------------|
G#|--11-11-11-11--|--11-11-11-11--|--11/13-13-13--|--13-13-13-13--|
 E|--10-10-10-10--|--10-10-10-10--|--10/12-12-12--|--12-12-12-12--|
 B|--8--8--8--8---|--8--8--8--8---|--8//10-10-10--|--10-10-10-10--|
F#|--8--8--8--8---|--8--8--8--8---|--8//10-10-10--|--10-10-10-10--|
 B|--8--8--8--8---|--8--8--8--8---|--8//10-10-10--|--10-10-10-10--|

C#|------------|-----------|-----------------|-----------|-----------|-----------|------------|2X
G#|o-----------|-----------|-----------------|-----------|-----------|-----------|-----------o|
 E|------------|-----------|-----------------|-----------|-----------|-----------|------------|
 B|------------|-----------|-----------------|--3-3-3-3--|--3-3-3-3--|--3/5-5-5--|--5-5-5-5---|
F#|o--x-3~-3~--|--x-3~-3~--|--3-0~-0~-0-0-0--|--3-3-3-3--|--3-3-3-3--|--3/5-5-5--|--5-5-5-5--o|
 B|------------|-----------|----0~-0~-0-0-0--|--3-3-3-3--|--3-3-3-3--|--3/5-5-5--|--5-5-5-5---|

C#|-----|---------------|---------------|------------|---------------|---------------|
G#|-----|--10-10-10-10--|--10-10-10-10--|------------|--10-10-10-10--|--10-10-10-10--|
 E|-----|--10-10-10-10--|--10-10-10-10--|------------|--10-10-10-10--|--10-10-10-10--|
 B|-----|--7--7--7--7---|--7--7--7--7---|------------|--7--7--7--7---|--7--7--7--7---|
F#|--0--|---------------|---------------|--0~-0~-0~--|---------------|---------------|
 B|--0--|---------------|---------------|--0~-0~-0~--|---------------|---------------|

C#|---------------|--15-15-15-15--|
G#|--13-13-13-13--|--13-13-13-13--|
 E|--14-14-14-14--|--12-12-12-12--|
 B|--12-12-12-12--|---------------|
F#|---------------|---------------|
 B|---------------|---------------|

C#|-------------|----------------|-------------|
G#|-------------|----------------|-------------|
 E|-------------|----------------|-------------|
 B|-------------|----------------|-------------|
F#|--000~-000~--|--000-000-000~--|--000-000-0--|
 B|--000~-000~--|--000-000-000~--|--000-000-0--|

C#|-------------|-------------|-------------|-------------|----|
G#|-10-10-10-10-|-10-10-10-10-|-10-10-10-10-|-10-10-10-10-|-10-|
 E|-10-10-10-10-|-10-10-10-10-|-10-10-10-10-|-10-10-10-10-|-10-|
 B|-12-12-12-12-|-12-12-12-12-|-12-12-12-12-|-12-12-12-12-|-12-|
F#|-------------|-------------|-------------|-------------|----|
 B|-------------|-------------|-------------|-------------|----|

C#|-------------------|-8--8--8--8--|-8--8--8--8--|-8--8--8--8--|-8--8--8--8--|-------|
G#|-------------------|-10-10-10-10-|-10-10-10-10-|-10-10-10-10-|-10-10-10-10-|-------|
 E|-------------------|-10-10-10-10-|-10-10-10-10-|-10-10-10-10-|-10-10-10-10-|-------|
 B|-------------------|-------------|-------------|-------------|-------------|-------|
F#|--000-000-000-000--|-------------|-------------|-------------|-------------|--000--|
 B|--000-000-000-000--|-------------|-------------|-------------|-------------|--000--|

C#|-------------------|-------------|-------------|-------------|---------|-------|
G#|-------------------|-10-10-10-10-|-10-10-10-10-|--10-10-10---|---------|-------|
 E|-------------------|-10-10-10-10-|-10-10-10-10-|--10-10-10-9-|-9-9-9-9-|-------|
 B|-------------------|-12-12-12-12-|-12-12-12-12-|--12-12-12-7-|-7-7-7-7-|-------|
F#|--000-000-000-000--|-------------|-------------|-----------7-|-7-7-7-7-|--000--|
 B|--000-000-000-000--|-------------|-------------|-------------|---------|--000--|

C#|------------|-------------|-------------|-------------|-------------|
G#|------------|-13-13-13-13-|-13-13-13-13-|-13-13-13/15-|-15-15-15\10-|
 E|------------|-x--x--x--x--|-x--x--x--x--|-x--x--x--x--|-x--x--x--x--|
 B|------------|-10-10-10-10-|-10-10-10-10-|-10-10-10/12-|-12-12-12\7--|
F#|--0~-0~-0~--|-------------|-------------|-------------|-------------|
 B|--0~-0~-0~--|-------------|-------------|-------------|-------------|

C#|-------------|------------|---------|---------|------|
G#|-10-10-10-10-|-10-10-10\8-|-8-8-8-8-|-8-8-8-8-|------|
 E|-x--x--x--x--|-x--x--x--x-|-x-x-x-x-|-x-x-x-x-|------|
 B|-7--7--7--7--|-7--7--7\\5-|-5-5-5-5-|-5-5-5-5-|------|
F#|-------------|------------|---------|---------|--0~--|
 B|-------------|------------|---------|---------|--0~--|

C#|-------------------|---------------------------|2X
G#|o--10~-10~-8-10-8--|--------------------------o|
 E|-----10~-----------|--10~~b12b10--10-9---------|
 B|-------------------|-------------------10/12---|
F#|o------------------|--------------------------o|
 B|-------------------|---------------------------|

C#|------------|-----------|-----------|-----------|
G#|o--6-6-6-6--|--6-6-6-6--|-----------|-----------|
 E|---x-x-x-x--|--x-x-x-x--|--7-7-7-7--|--7-7-7-7--|
 B|---3-3-3-3--|--3-3-3-3--|--x-x-x-x--|--x-x-x-x--|
F#|o-----------|-----------|--5-5-5-5--|--5-5-5-5--|
 B|------------|-----------|-----------|-----------|

C#|-----------|-----------|-----------|------------|2X
G#|-----------|-----------|--8-8-8-8--|--8-8-8-8--o|
 E|--5-5-5-5--|--5-5-5-5--|--x-x-x-x--|--x-x-x-x---|
 B|--x-x-x-x--|--x-x-x-x--|--5-5-5-5--|--5-5-5-5---|
F#|--3-3-3-3--|--3-3-3-3--|-----------|-----------o|
 B|-----------|-----------|-----------|------------|

C#|------------------|---------------------|------------------|-------------|-----------|
G#|------------------|---------------------|------------------|-------------|-----------|
 E|------------------|---------------------|------------------|-------------|-----------|
 B|------------------|---------------------|------------------|----5-5-5-5--|--8-8-8-8--|
F#|--13-----10---12--|---------------------|--13-----10---12--|----5-5-5-5--|--8-8-8-8--|
 B|-----0-0----0-----|--000-0-0-0-0-0-0-0--|-----0-0----0-----|--0-5-5-5-5--|--8-8-8-8--|

C#|------------------|----------------|----------------|-------------|------------|3X
G#|o-----------------|----------------|----------------|-------------|-----------o|
 E|------------------|----------------|----------------|-------------|------------|
 B|---8------5----7--|----------------|--8------5---7--|----5-5-5-5--|--8-8-8-8---|
F#|o--10-----7----8--|----------------|--10-----7---8--|----5-5-5-5--|--8-8-8-8--o|
 B|------0-0---0-----|--0~-0000-0000--|-----0-0---0----|--0-5-5-5-5--|--8-8-8-8---|

C#|-----------------|----------------|----------------|-------------|-------|
G#|-----------------|----------------|----------------|-------------|-------|
 E|-----------------|----------------|----------------|-------------|-------|
 B|--8------5----7--|----------------|--8------5---7--|----5-5-5-5--|--8-8--|
F#|--10-----7----8--|----------------|--10-----7---8--|----5-5-5-5--|--8-8--|
 B|-----0-0---0-----|--0~-0000-0000--|-----0-0---0----|--0-5-5-5-5--|--8-8--|

C#|---------------|---------------|--------------|----------------|2X
G#|o----10-10-10--|--10-10-10-10--|----13-13-13--|--13-13-13-13--o|
 E|-----x--x--x---|--x--x--x--x---|----x--x--x---|--x--x--x--x----|
 B|-----7--7--7---|--7--7--7--7---|----10-10-10--|--10-10-10-10---|
F#|o--0-----------|---------------|--0-----------|---------------o|
 B|---0-----------|---------------|--0-----------|----------------|

C#|---------------|---------------|---------------|---------------|
G#|--11-11-11-11--|--11-11-11-11--|--11-11-11-11--|--11-11-11-11--|
 E|--10-10-10-10--|--10-10-10-10--|--10-10-10-10--|--10-10-10-10--|
 B|--8--8--8--8---|--8--8--8--8---|--8--8--8--8---|--8--8--8--8---|
F#|--8--8--8--8---|--8--8--8--8---|--8--8--8--8---|--8--8--8--8---|
 B|--8--8--8--8---|--8--8--8--8---|--8--8--8--8---|--8--8--8--8---|

C#|---------------|---------------|---------------|---------------|
G#|--11-11-11-11--|--11-11-11-11--|--11/13-13-13--|--13-13-13-13--|
 E|--10-10-10-10--|--10-10-10-10--|--10/12-12-12--|--12-12-12-12--|
 B|--8--8--8--8---|--8--8--8--8---|--8//10-10-10--|--10-10-10-10--|
F#|--8--8--8--8---|--8--8--8--8---|--8//10-10-10--|--10-10-10-10--|
 B|--8--8--8--8---|--8--8--8--8---|--8//10-10-10--|--10-10-10-10--|

C#|---------------|---------------|--------------|----------------|2X
G#|o----10-10-10--|--10-10-10-10--|----13-13-13--|--13-13-13-13--o|
 E|-----x--x--x---|--x--x--x--x---|----x--x--x---|--x--x--x--x----|
 B|-----7--7--7---|--7--7--7--7---|----10-10-10--|--10-10-10-10---|
F#|o--0-----------|---------------|--0-----------|---------------o|
 B|---0-----------|---------------|--0-----------|----------------|

C#|---------------|---------------|---------------|---------------|
G#|--11-11-11-11--|--11-11-11-11--|--11-11-11-11--|--11-11-11-11--|
 E|--10-10-10-10--|--10-10-10-10--|--10-10-10-10--|--10-10-10-10--|
 B|--8--8--8--8---|--8--8--8--8---|--8--8--8--8---|--8--8--8--8---|
F#|--8--8--8--8---|--8--8--8--8---|--8--8--8--8---|--8--8--8--8---|
 B|--8--8--8--8---|--8--8--8--8---|--8--8--8--8---|--8--8--8--8---|

C#|---------------|---------------|---------------|---------------|
G#|--11-11-11-11--|--11-11-11-11--|--11/13-13-13--|--13-13-13-13--|
 E|--10-10-10-10--|--10-10-10-10--|--10/12-12-12--|--12-12-12-12--|
 B|--8--8--8--8---|--8--8--8--8---|--8//10-10-10--|--10-10-10-10--|
F#|--8--8--8--8---|--8--8--8--8---|--8//10-10-10--|--10-10-10-10--|
 B|--8--8--8--8---|--8--8--8--8---|--8//10-10-10--|--10-10-10-10--|

C#|-----------|-----------|-----------------|-----------|-----------|-----------|-----------|
G#|-----------|-----------|-----------------|-----------|-----------|-----------|-----------|
 E|-----------|-----------|-----------------|-----------|-----------|-----------|-----------|
 B|-----------|-----------|-----------------|--3-3-3-3--|--3-3-3-3--|--3/5-5-5--|--5-5-5-5--|
F#|--x-3~-3~--|--x-3~-3~--|--3-0~-0~-0-0-0--|--3-3-3-3--|--3-3-3-3--|--3/5-5-5--|--5-5-5-5--|
 B|-----------|-----------|----0~-0~-0-0-0--|--3-3-3-3--|--3-3-3-3--|--3/5-5-5--|--5-5-5-5--|

C#|-----------|-----------|-----------------|-----------|-----------|-----------|-----------|
G#|-----------|-----------|-----------------|-----------|-----------|-----------|-----------|
 E|-----------|-----------|-----------------|-----------|-----------|-----------|-----------|
 B|-----------|-----------|-----------------|--3-3-3-3--|--3-3-3-3--|-----------|-----------|
F#|--x-3~-3~--|--x-3~-3~--|--3-0~-0~-0-0-0--|--3-3-3-3--|--3-3-3-3--|--0-0-0-0--|--0-0-0-0--|
 B|-----------|-----------|----0~-0~-0-0-0--|--3-3-3-3--|--3-3-3-3--|--0-0-0-0--|--0-0-0-0--|

C#|---------------|-------------|-----------------------10-12-13--|
G#|o--------------|-------------|-----10-11-10-------13-----------|
 E|---------------|-------------|---------------------------------|
 B|---------------|-------------|--------------10-12--------------|
F#|o--000-00-000--|--00000-000--|--00-----------------------------|
 B|---000-00-000--|--00000-000--|--00-----------------------------|

C#|--------------|-------------|-------------|2X
G#|--------------|-------------|------------o|
 E|--------------|-------------|-------------|
 B|--------------|-------------|-----8~-7~---|
F#|--000-00-000--|--00000-000--|--00-8~-7~--o|
 B|--000-00-000--|--00000-000--|--00-8~-7~---|

C#|----------------|---------------|------------------|
G#|----------------|---------------|------------------|
 E|----------------|---------------|------------------|
 B|----------------|---------------|------------------|
F#|--000~-00-000~--|--00000~-000~--|--00-000~-00000~--|
 B|--000~-00-000~--|--00000~-000~--|--00-000~-00000~--|

C#|--------------|-------------|--------|
G#|--------------|-------------|--------|
 E|--------------|-------------|--------|
 B|--------------|-------------|--------|
F#|--000-00-000--|--00000-000--|--000~--|
 B|--000-00-000--|--00000-000--|--000~--|

C#|--------------|-------------|-----------------------10-12-13--|
G#|--------------|-------------|-----10-11-10-------13-----------|
 E|--------------|-------------|---------------------------------|
 B|--------------|-------------|--------------10-12--------------|
F#|--000-00-000--|--00000-000--|--00-----------------------------|
 B|--000-00-000--|--00000-000--|--00-----------------------------|

C#|--------------|-------------|------------|---------|
G#|--------------|-------------|------------|---------|
 E|--------------|-------------|------------|---------|
 B|--------------|-------------|-----8~-7~--|---------|
F#|--000-00-000--|--00000-000--|--00-8~-7~--|--0-0-0--|
 B|--000-00-000--|--00000-000--|--00-8~-7~--|--0-0-0--|

            
            
Suggest correction
Creating personal tab
Creating personal tab
You can edit any tab online and save it as your Personal.

You can edit, replace or remove any tab part or add personal notes – all changes will be seen only by you.

Personal tabs can be accessed anytime from any device, even offline.
Learn more »
Give kudos to tab author, rate the tab!
1 2 3 4 5
comments
print report bad tab
6 comments total. Showing first comments.
0 reply
xKnifekillerx 393 Aug 07, 2009 10:25 AM

I was gonna post this. but we play it the same. so no point.
good tab. =]]]

0 reply
HyPeRsHoCk 10 Nov 22, 2009 04:19 PM

Uhh I'm a bit confused. This must be lead eh?

0 reply
\m/[-_-]\m/ 333 Dec 10, 2009 04:40 PM

^^^ Yea, this is the lead guitar part.

guest
You may want to rate the tab now too:
select rating
Wanna post a correction for this tab? Suggest correction