Oops, an error
Loading. Please wait.

You Cant Spell Crap Without C bass

version 1
version 1

Whole song

Interactive

1,321 views 6 this week
no commentswrite comment
1 2 3 4 5
3 more votes to show rating
add to favorites
×
Save as Personal and add changes to this tab that will be seen only by you. Learn more ›
×
You can save this tab as Personal to edit and correct it or add notes. All changes will be seen only by you. Learn more »
launch autoscroll
font size
0
reset
guitar tuner
edit
Autoscroll
slow
fast
+/-
esc
set tempo
stop
++++++++++++++++++++++++++++++++++++++++++++++++++++++++++++
|The Devil Wears Prada-You Can't Spell Crap Without The "C"|
++++++++++++++++++++++++++++++++++++++++++++++++++++++++++++
Tuning:Drop D

0:06
G|-----------------|
D|-----------------|
A|-----------------|
D|-0-0-0-0-0-0-0-0-|

|---------------------------------|-----------|---------|---------|
|---------------------------------|-----------|---------|---------|
|---------------------------------|-----------|---------|---------|
|-0-0-0-0-0-0-0-0-0-0-0-0-0-0-0-0-|-77-7-7-7--|-55-5-5--|-8888888-|

|---------------------------------|-----------|---------|---------|
|---------------------------------|-----------|---------|---------|
|---------------------------------|-----------|---------|---------|
|-0-0-0-0-0-0-0-0-0-0-0-0-0-0-0-0-|-77-7-7-7--|-55-5-5--|-8888888-|

|-----------------|-------------------------------------|
|-----------------|-------------------------------------|
|-----------------|------------/7777--------------/7777-|
|-0----------\10--|-0------000-------0------00--0-------|

|------------------------------------|
|------------------------------------|
|------------/7777-------------/7777-|
|-0------000-------0-------000-------|

|---------------------------------|-------------------|---------|
|---------------------------------|-------------------|---------|
|---------------------------------|-------------------|---------|
|-0-0-0-0-0-0-0-0-0-0-0-0-0-0-0-0-|-7-7-7-7-7-7-7-7-7-|-5-5-5-5-|

|-------------|
|-------------|
|-------------|
|-8-8-8-8-8-8-|

|---------------------------------|-------------------|-------------|
|---------------------------------|-------------------|-------------|
|---------------------------------|-------------------|-------------|
|-0-0-0-0-0-0-0-0-0-0-0-0-0-0-0-0-|-7-7-7-7-7-7-7-7-7-|-5-5-5-5-5-5-|

|-------------|
|-------------|
|-------------|
|-8-8-8-8-8-8-|

|-----------------------------------|
|-----------------------------------|
|-----------------------------------|
|-0---------------0----------111310-|

Kicka#*!! Breakdowm
|--------------------------|--------------------------|
|--------------------------|--------------------------|
|--------------------------|--------------------------|
|-0-00000-00000-00000-0000-|-0-00000-00000-00000-0000-|

|--------------------------|----------------------|
|--------------------------|----------------------|
|--------------------------|----------------------|
|-0-00000-00000-00000-0000-|-0-00000-00000-111310-|

|---------------------------------------------------|
|---------------------------------------------------|
|--------------------/7777--------------------/7777-|
|-0-00000--0-0-00000-------0-00000--0-0-00000-------|

play softer
|---------------------------------------|
|---------------------------------------|
|---------------------------------------|
|--0--00---00---00----5--55---55---55---|

play harder
|---------------------------------------|
|---------------------------------------|
|---------------------------------------|
|--0--00---00---00----5--55---55---55---|

|---------------------------------------|
|---------------------------------------|
|---------------------------------------|
|--0--00---00---00----5--55---55---55---|

play softer "My ears are on the brink of detonation."
|------------------------------------|-------------------------------------|
|------------------------------------|-------------------------------------|
|-------------------5--------7-------|-------------------5--------7--------|
|-0--------0-------------------------|-0--------0--------------------------|

|------------------------------------|-------------------------------------|
|------------------------------------|-------------------------------------|
|-------------------5-------7--------|-------------------5--------7--------|
|-0--------0-------------------------|-0--------0----------------------0---|

|-----------------------------------------------------------|
|-----------------------------------------------------------|
|-----------------------------------------------------------|
|-0-00-0-00-0-00-0-00-0-00-0-00-0-00-0-00-0-00-0-00-0-00-0--|

strumming is off a little
|-------------------------------------------|
|-------------------------------------------|
|-------------------------------------------|
|-0-000000-0000-0-00000-0-00000-0-00000-0---|

|-------------------------------------------|
|-------------------------------------------|
|-------------------------------------------|
|-0-000000-0000-0-00000-0-00000-0-00000-0---|

"We are not barren."
|------------------------|------------------|
|------------------------|------------------|
|------------------------|------------------|
|-0---0---0---0---0-/10\-|-0---0---0---1--0-|

Lyrics:
I wish to turn around and return (to her warmth and laughter).
But this calling is strong and denial is impossible.
No measure of weight can justify what now presses into my chest.
To the road,your freedom is awesome,to the road.
But does it compare to the sweet embrace of my love.
Our convictions are engraved by our words.
Convictions engraved by her marvelous hands.
My ears on the brink of detonation.
And the mud amongst the passage of my throat is drying to permanance.
Harvest the crops of memories.
To what's true I offer thanks.
I've found what's pure and I've found what's sweet.
We are not barren.We are not barren.

            
            
Suggest correction
Creating personal tab
Creating personal tab
You can edit any tab online and save it as your Personal.

You can edit, replace or remove any tab part or add personal notes – all changes will be seen only by you.

Personal tabs can be accessed anytime from any device, even offline.
Learn more »
Give kudos to tab author, rate the tab!
1 2 3 4 5
comments
print report bad tab
guest
Wanna post a correction for this tab? Suggest correction