Oops, an error
Loading. Please wait.

43 Burnt solo tab

version 1
version 1

Solo

  • Tab for the jazz break including time signatures a... Show more

Whole song

Interactive

202 views 3 this week
no commentswrite comment
1 2 3 4 5
2 more votes to show rating
add to favorites
×
Save as Personal and add changes to this tab that will be seen only by you. Learn more ›
×
You can save this tab as Personal to edit and correct it or add notes. All changes will be seen only by you. Learn more »
launch autoscroll
font size
0
reset
how to read this tab
guitar tuner
edit
Autoscroll
slow
fast
+/-
esc
set tempo
stop
Author
Difficulty
About this tab version
Tab for the jazz break including time signatures and how the two guitars overlap for clarity. Was this info helpful? Yes No
Artist: The Dillinger Escape Plan
Album: Calculating Infinity
Song: 43% Burnt
Part of the song: 1:41 to 2:03

Having looked for tabs for this and not finding any that sounded right I decided to transcribe it myself.
I'm confident that the notes in my tab are correct.
As Ben Weinman does not write music in the standard way there is no 'official' time signature so I've used
what I felt is most sensible.

In the first section both guitars play part A followed by part B.
In the second section the left channel plays part A, part B, part A again and finally four additional notes.
Meanwhile the right channel plays part B five times (final time two notes short).

Note that in the second section the two guitars play in different time signatures!


[Part A]

  5/8              6/8                 5/8
e|----------------|-------------------|----------------|----------------|
B|----------------|-------------------|----------------|----------------|
G|-10-------------|--7--------9-------|-10-------------|--7-----9-------|
D|-----9-----7--8-|-----8--------8----|-----9-----7--8-|-----8-----8----|
A|--------7-------|--------9--------7-|--------7-------|--------------7-|
E|----------------|-------------------|----------------|----------------|


                   6/8                 5/8
e|----------------|-------------------|----------------|
B|----------------|-------------------|----------------|
G|-10-------------|--7--------9-------|-10-------------|
D|-----9-----7--8-|-----8--------8----|-----9-----7--8-|
A|--------7-------|--------9--------7-|--------7-------|
E|----------------|-------------------|----------------|


[Part B]

  5/8
e|----------------|----------------|----------------|----------------|
B|----------------|----------------|-----------8----|-10-------------|
G|-10--------8----|-10--------8----|-10-------------|-----9-----9----|
D|-----9--------7-|-----9--------7-|-----9--------7-|--------7-----8-|
A|--------7-------|--------7-------|--------7-------|----------------|
E|----------------|----------------|----------------|----------------|


[Second Section]

Gtr. 1
e|----------------|-------------------|---------------|------------
B|----------------|-------------------|---------------|------------
G|-10-------------|--7--------9-------|10-------------|-7-----9----
D|-----9-----7--8-|-----8--------8----|----9-----7--8-|----8-----8-
A|--------7-------|--------9--------7-|-------7-------|------------
E|----------------|-------------------|---------------|------------

Gtr. 2
e|----------------|---------------|---------------|----------------|
B|----------------|---------------|-----------8---|-10-------------|
G|-10--------8----|-10--------8---|-10------------|-----9-----9----|
D|-----9--------7-|-----9--------7|-----9--------7|--------7-----8-|
A|--------7-------|--------7------|--------7------|----------------|
E|----------------|---------------|---------------|----------------|


Gtr. 1
e ---|---------------|-----------------|--------------|---------
B ---|---------------|-----------------|--------------|---------
G ---|10-------------|-7--------9------|-10-----------|-10------
D ---|----9-----7--8-|----8--------8---|----9-----7--8|----9----
A -7-|-------7-------|-------9--------7|-------7------|-------7-
E ---|---------------|-----------------|--------------|---------

Gtr. 2
e|---------------|---------------|--------------|---------------|
B|---------------|---------------|----------8---|-10------------|
G|-10--------8---|-10--------8---|-10-----------|----9-----9----|
D|-----9--------7|-----9--------7|----9--------7|-------7-----8-|
A|--------7------|--------7------|-------7------|---------------|
E|---------------|---------------|--------------|---------------|


Gtr. 1
e ------|--------------|--------------|--------------|---------
B ------|--------------|----------8---|-10-----------|---------
G --8---|-10-------8---|-10-----------|----9-----9---|-10------
D -----7|----9--------7|----9--------7|-------7-----8|----9----
A ------|-------7------|-------7------|--------------|-------7-
E ------|--------------|--------------|--------------|---------

Gtr. 2
e|---------------|--------------|--------------|---------------|
B|---------------|--------------|----------8---|-10------------|
G|-10--------8---|-10-------8---|-10-----------|----9-----9----|
D|-----9--------7|----9--------7|----9--------7|-------7-----8-|
A|--------7------|-------7------|-------7------|---------------|
E|---------------|--------------|--------------|---------------|


Gtr. 1
e ------|-----------------|--------------|--------------|------
B ------|-----------------|--------------|--------------|------
G ------|-7--------9------|-10-----------|-7-----9------|-10---
D --7--8|----8--------8---|----9-----7--8|----8-----8---|----9-
A ------|-------9--------7|-------7------|-------------7|------
E ------|-----------------|--------------|--------------|------

Gtr. 2
e|---------------|--------------|--------------|---------------|
B|---------------|--------------|----------8---|-10------------|
G|-10--------8---|-10-------8---|-10-----------|----9-----9----|
D|-----9--------7|----9--------7|----9--------7|-------7-----8-|
A|--------7------|-------7------|-------7------|---------------|
E|---------------|--------------|--------------|---------------|


Gtr. 1
e --------|-----------------|---------------|------------|
B --------|-----------------|---------------|------------|
G --------|-7--------9------|-10------------|-7-----9----|
D ----7--8|----8--------8---|-----9-----7--8|----8-----8-|
A -7------|-------9--------7|--------7------|------------|
E --------|-----------------|---------------|------------|

Gtr. 2
e|--------------|--------------|---------------|---------|
B|--------------|--------------|-----------8---|-10------|
G|-10-------8---|-10-------8---|-10------------|----9----|
D|----9--------7|----9--------7|-----9--------7|-------7-|
A|-------7------|-------7------|--------7------|---------|
E|--------------|--------------|---------------|---------|

            
            
Suggest correction
Creating personal tab
Creating personal tab
You can edit any tab online and save it as your Personal.

You can edit, replace or remove any tab part or add personal notes – all changes will be seen only by you.

Personal tabs can be accessed anytime from any device, even offline.
Learn more »
Give kudos to tab author, rate the tab!
1 2 3 4 5
comments
print report bad tab
guest
You may want to rate the tab now too:
select rating
Wanna post a correction for this tab? Suggest correction