Oops, an error
Loading. Please wait.

Sugar Coated Sour tab

version 1
version 1

Whole song

Interactive

5,480 views 6 this week
no commentswrite comment
1 2 3 4 5
2 more votes to show rating
add to favorites
×
Save as Personal and add changes to this tab that will be seen only by you. Learn more ›
×
You can save this tab as Personal to edit and correct it or add notes. All changes will be seen only by you. Learn more »
launch autoscroll
font size
0
reset
how to read this tab
guitar tuner
edit
Autoscroll
slow
fast
+/-
esc
set tempo
stop
Sugar Coated Sour                                 
The Dillinger Escape Plan
Guitar



      T      T         T      T      T         T      
      S   S  S   S  S  S   S  S   S  S   S  S  S   S  
E||--19p-13-20p-14----19p-13-20p-14--------21--------|
B||----------------19---------------19p-13----20p-14-|
G||--------------------------------------------------|
D||--------------------------------------------------|
A||--------------------------------------------------|
E||--------------------------------------------------|


   T      T      T  T  T  T  T  T                                           
   S   S  S   S  S  S  S  S  S  S E     E  E  S E  E  S    E  S E  E  S E   
--19p-13-20p-14----21----------23----|------------------|------------------|
----------------19-------20----------|------------------|------------------|
----------------------17----18-------|------------------|------------------|
-------------------------------------|--3--3----3--3----|--3----3--3----3--|
-------------------------------------|--2--2----2--2----|--2----2--2----2--|
-------------------------------------|--1--1----1--1----|--1----1--1----1--|


  S E  S E  E  S S    S E  S E  E  S S    S E  S E  S E  S    S S E  S E  S E   
-------------------|-------------------|-------------------|-------------------|
-------------------|-------------------|-------------------|-------------------|
-------------------|-------------------|-------------------|-------------------|
----3----3--3----3-|--L-3----3--3----3-|--L-3----3----3--3-|--L---3----3----3--|
----2----2--2----2-|--L-2----2--2----2-|--L-2----2----2--2-|--L---2----2----2--|
----1----1--1----1-|--L-1----1--1----1-|--L-1----1----1--1-|--L---1----1----1--|


  E  S E  E  S    E  E  E.  E.     E  E  E.  E.     S S S S S S S S S S  
---------------|----------------|----------------|----------------------|
---------------|----------------|----------------|----------------------|
---------------|-----8----------|-----8----------|------8-8-------------|
--3----3--3----|-----7----------|-----7----------|------7-7-------------|
--2----2--2----|--4--6--4---3---|--4--6--4---3---|--4-4-6-6-4-4-4-3-3-3-|
--1----1--1----|--5-----5---4---|--5-----5---4---|--5-5-----5-5-5-4-4-4-|


  S S S S S S S S S S    E  E  E  E     E  E  S E  E  S E   
----------------------|--------------|---------------------|
----------------------|--------------|---------------------|
------8-8-------------|--------8--8--|---------------------|
------7-7-------------|--------7--7--|--3--3----3--3----3--|
--4-4-6-6-4-4-4-3-3-3-|--4--4--6--6--|--2--2----2--2----2--|
--5-5-----5-5-5-4-4-4-|--5--5--------|--1--1----1--1----1--|


  S E  E  S E  S E  S    S S S S S S S S S S    S S S S S S S S S S  
----------------------|----------------------|----------------------|
----------------------|----------------------|----------------------|
----------------------|------8-8-------------|------8-8-------------|
----3--3----3----3--L-|------7-7-------------|------7-7-------------|
----2--2----2----2--L-|--4-4-6-6-4-4-4-3-3-3-|--4-4-6-6-4-4-4-3-3-3-|
----1--1----1----1--L-|--5-5-----5-5-5-4-4-4-|--5-5-----5-5-5-4-4-4-|


  E  E  E  E     E  E  S E  E  S    E  S E  E  S E     S E  S E  E  S S  
--------------|------------------|------------------|-------------------|
--------------|------------------|------------------|-------------------|
--------8--8--|------------------|------------------|-------------------|
--------7--7--|--3--3----3--3----|--3----3--3----3--|----3----3--3----3-|
--4--4--6--6--|--2--2----2--2----|--2----2--2----2--|----2----2--2----2-|
--5--5--------|--1--1----1--1----|--1----1--1----1--|----1----1--1----1-|


  S E  S E  E  S S    S E  S E  E  S S    S E  S E  S E  S    S S E  S E  S E   
-------------------|-------------------|-------------------|-------------------|
-------------------|-------------------|-------------------|-------------------|
-------------------|-------------------|-------------------|-------------------|
--L-3----3--3----3-|--L-3----3--3----3-|--L-3----3----3--3-|--L---3----3----3--|
--L-2----2--2----2-|--L-2----2--2----2-|--L-2----2----2--2-|--L---2----2----2--|
--L-1----1--1----1-|--L-1----1--1----1-|--L-1----1----1--1-|--L---1----1----1--|


  E  S E  E.  S    E.  E.  E.  E.     E  E  E  E  E  Q     
----------------|------------------|----------------------|
----------------|------------------|--9--9--9--9--9--9----|
----------------|------------------|--7--7--7--7--7--7----|
--3----3--3-----|------5-------5---|--6--6--6--6--6--6----|
--2----2--2-----|--4-------4-------|----------------------|
--1----1--1-----|------------------|----------------------|


  S S S S S S S S S S S S S S S S    S S S S S S S S S S S S S S S  S  
----------------------------------|-----------------------------------|
----------------------------------|-----------------------------------|
----------------------------------|------------------6-7-8-9----------|
----------5-6-7-8---------6-7-8-9-|--6-7-8-9-6-7-8-9---------7-8-9-10-|
--5-6-7-8---------6-7-8-9---------|-----------------------------------|
----------------------------------|-----------------------------------|


  S S S  S  S  S  S  S  S  S  E     Q    E.   
---------------------------------|-----------|
-----------------------------10--|--9----8---|
--7-8-9-10-10-10-10-10-10-11-10--|--9----8---|
---------------------------------|-----------|
---------------------------------|-----------|
---------------------------------|-----------|


  S S S  S S S E  S S S  S S S S  S    S S S  S S S S  S S S S  S S S  S  S  
------------------------------------|-----------7-8-9-10----------8-9-10-11-|
-----------7-8-9-----------7-8-9-10-|--7-8-9-10----------7-8-9-10-----------|
--7-8-9-10--------7-8-9-10----------|---------------------------------------|
------------------------------------|---------------------------------------|
------------------------------------|---------------------------------------|
------------------------------------|---------------------------------------|


   E   E   S  S S S E  E       H         E     W                 
--12--11--10-11-9-8-9-----|--/20---------L--|-------------------|
--------------------------|-----------------|-------------------|
--------------------------|-----------------|-------------------|
--------------------------|-----------------|-------------------|
--------------------------|-----------------|-------------------|
--------------------------|-----------------|-------------------|


           ^                                                 
  H        H           W                   W                 
--------------------|-------------------|-------------------|
--------------------|-------------------|-------------------|
-----------9--------|--L----------------|--L----------------|
-----------9--------|--L----------------|--L----------------|
-----------7--------|--L----------------|--L----------------|
-----------0--------|--L----------------|--L----------------|


                               ^                    ^         
  W                   H        H           H        H         
-------------------|--------------------|--------------------|
-------------------|--------------------|--------------------|
--L----------------|--L-----------------|--------------------|
--L----------------|--L--------9--------|--L--------8--------|
--L----------------|--L--------7--------|--L--------6--------|
--L----------------|--L--------5--------|--L--------4--------|


           ^                     ^                              
  H        H           H         H            W                 
--------------------|---------------------|--------------------|
--------------------|---------------------|--------------------|
--------------------|---------------------|--------------------|
--L--------7--------|--L--------11--------|---L----------------|
--L--------5--------|--L--------10--------|---L----------------|
--L--------3--------|--L---------9--------|---L----------------|


   W                    H.            E     E  E  E  E   
--------------------|--------------------|--------------|
--------------------|--------------------|--------------|
--------------------|--------------------|--------------|
---L----------------|---L-------------L--|-----5-----5--|
---L----------------|---L-------------L--|--4-----4-----|
---L----------------|---L-------------L--|--------------|


   S  S  S  S  S  Q       E.  E  E.  E.  E  E.  E.  E  E.  E  E   
--13-13-13-13-13--L----|-----------------------------------------|
--12-12-12-12-12--L----|-----------------------------------------|
--13-13-13-13-13--L----|--8---8------8---8------8---8------8-----|
-----------------------|--7---7------7---7------7---7------7-----|
-----------------------|--6---6------6---6------6---6------6-----|
-----------------------|-----------------------------------------|


  E.  E  E.  E.  E  E.  E.  E  E.     S S S S S S  
-----------------------------------|--------------|
-----------------------------------|--------------|
--8---8------8---8------8---8------|--7-7-7-7-7-7-|
--7---7------7---7------7---7------|--------------|
--6---6------6---6------6---6------|--------------|
-----------------------------------|--------------|


  E.  E  E.  E.  E  E.  E.  E  E.  E  E   
-----------------------------------------|
-----------------------------------------|
--8---8------8---8------8---8------8-----|
--7---7------7---7------7---7------7-----|
--6---6------6---6------6---6------6-----|
-----------------------------------------|


  E.  E  E.  E.  E  E.  E.  E  E.  E  E   
-----------------------------------------|
-----------------------------------------|
--5---5------5---5------3---3------3-----|
--4---4------4---4------2---2------2-----|
--3---3------3---3------1---1------1-----|
-----------------------------------------|


  E.  E  E.  E.  E  E.  E.  E  E.  E  E     E.  E  E.  E.  E  E.  E.  E  E.   
-----------------------------------------|-----------------------------------|
-----------------------------------------|-----------------------------------|
--8---8------8---8------8---8------8-----|--8---8------8---8------8---8------|
--7---7------7---7------7---7------7-----|--7---7------7---7------7---7------|
--6---6------6---6------6---6------6-----|--6---6------6---6------6---6------|
-----------------------------------------|-----------------------------------|


  S S S S S S    E.  E  E.  E.  E  E.  E.  E  E.  E  E   
--------------|-----------------------------------------|
--------------|-----------------------------------------|
--7-7-7-7-7-7-|--8---8------8---8------8---8------8-----|
--------------|--7---7------7---7------7---7------7-----|
--------------|--6---6------6---6------6---6------6-----|
--------------|-----------------------------------------|


  E.  E  E.  E.  E  E.  E.  E  E.  E  E   
-----------------------------------------|
-----------------------------------------|
--5---5------5---5------3---3------3-----|
--4---4------4---4------2---2------2-----|
--3---3------3---3------1---1------1-----|
-----------------------------------------|


  PM PM PM PM PM PM PM PM  PM PMPM PM PM PM PM PM    PM   PM PM PM      PM PM  
  S  S  S  S  S  S  S  S   S  S S  S  S  S  S  S     E  S S  S  S  Q    S  S   
--------------------------------------------------|---------------------------|
--------------------------------------------------|---------------------------|
--------------------7--7--10-10-------9--9--------|---------------------------|
--------9--9--8--8--------------9--9--------8--8--|---------------------------|
--7--7--------------------------------------------|--0--L-0--0--0--L----0--0--|
--------------------------------------------------|--0--L-0--0--0--L----0--0--|


  PM   PM PM PM      PM PM    PM   PM PM PM      PM PM    PM   PM PM  
  E  S S  S  S  Q    S  S     E  S S  S  S  Q    S  S     Q    S  S   
---------------------------|---------------------------|-------------|
---------------------------|---------------------------|-------------|
---------------------------|---------------------------|-------------|
---------------------------|---------------------------|-------------|
--0--L-0--0--0--L----0--0--|--0--L-0--0--0--L----0--0--|--0----0--0--|
--0--L-0--0--0--L----0--0--|--0--L-0--0--0--L----0--0--|--0----0--0--|


  PM   PM PM PM      PM PM    PM   PM PM PM      PM PM  
  E  S S  S  S  Q    S  S     E  S S  S  S  Q    S  S   
---------------------------|---------------------------|
---------------------------|---------------------------|
---------------------------|---------------------------|
---------------------------|---------------------------|
--0--L-0--0--0--L----0--0--|--0--L-0--0--0--L----0--0--|
--0--L-0--0--0--L----0--0--|--0--L-0--0--0--L----0--0--|


  PM   PM PM PM      PM PM    PM   PM PM    PM   PM PM PM      PM PM  
  E  S S  S  S  Q    S  S     Q    S  S     E  S S  S  S  Q    S  S   
---------------------------|-------------|---------------------------|
---------------------------|-------------|---------------------------|
---------------------------|-------------|---------------------------|
---------------------------|-------------|---------------------------|
--0--L-0--0--0--L----0--0--|--0----0--0--|--0--L-0--0--0--L----0--0--|
--0--L-0--0--0--L----0--0--|--0----0--0--|--0--L-0--0--0--L----0--0--|


  PM   PM PM PM      PM PM    PM                                              
  E  S S  S  S  Q    S  S     Q       E.  E  E.  E.  E  E.  E.  E  E.  E  E   
---------------------------|-------|-----------------------------------------|
---------------------------|-------|-----------------------------------------|
---------------------------|-------|--5---5------5---5------3---3------3-----|
---------------------------|-------|--4---4------4---4------2---2------2-----|
--0--L-0--0--0--L----0--0--|--0----|--3---3------3---3------1---1------1-----|
--0--L-0--0--0--L----0--0--|--0----|-----------------------------------------|


  Q    Q    Q.     Q.        Q    Q    Q.     Q.      
--------------------------|--------------------------|
--------------------------|--------------------------|
-------8------------------|-------8------------------|
-------5------------------|-------5------------------|
--6----6----6------5------|--6----6----6------5------|
--5---------5------4------|--5---------5------4------|


  Q    Q    Q.     Q.        Q    Q    Q.     Q.      
--------------------------|--------------------------|
--------------------------|--------------------------|
-------8------------------|-------8------------------|
-------5------------------|-------5------------------|
--6----6----6------5------|--6----6----6------5------|
--5---------5------4------|--5---------5------4------|


  E  E  E  E  E.  Q    E.  E     E  E  E  E  E.  Q    E.  E   
------------------------------|------------------------------|
------------------------------|------------------------------|
--------------8--------7------|--------------8--------7------|
--------------7--------6------|--------------7--------6------|
--6--6--6--6--6--------5------|--6--6--6--6--6--------5------|
------------------------------|------------------------------|


  E  E  E  E  E.  Q    E.  E     E  E  E  E  E.  Q    E.  E   
------------------------------|------------------------------|
------------------------------|------------------------------|
--------------8--------7------|--------------8--------7------|
--------------7--------6------|--------------7--------6------|
--6--6--6--6--6--------5------|--6--6--6--6--6--------5------|
------------------------------|------------------------------|


  E  E  E  E.  Q    E.     E  E  E  E  E  E  E  E  Q     
------------------------|-------------------------------|
------------------------|-------------------------------|
--------8--8--------8---|-------------------------------|
--------7--7--------7---|-------------------------------|
--6--6--6--6--------6---|-------------------------------|
------------------------|--6--6--6--4--4--4--6--6-------|


  E  E  E  E  E  E  E  E  E  E     E  E  E  E  E  E  E  E  E  E   
--------------------------------|--------------------------------|
--------------------------------|--------------------------------|
--------------------------8--8--|--------------------------8--8--|
--------------------------7--7--|--------------------------7--7--|
--------------------------6--6--|--------------------------6--6--|
--6--6--6--4--4--4--6--6--------|--6--6--6--4--4--4--6--6--------|


  E  E  E  E  E  E  E  E  Q       E  E  E  E     E.  E.  E.  E.  E  E  E  E   
-------------------------------|--------------|------------------------------|
-------------------------------|--------------|------------------------------|
-------------------------------|--------8--8--|--8-------8-------8-----8-----|
-------------------------------|--------7--7--|--7-------7-------7-----7-----|
-------------------------------|--------6--6--|--6-------6-------6-----6-----|
--6--6--6--4--4--4--6--6-------|--6--6--------|--5-------5-------5-----5-----|


  E.  E.  E.  E.  E  E  E  E     E.  E.  E.  E.  E  E  E  E   
------------------------------|------------------------------|
------------------------------|------------------------------|
--8-------8-------8-----8-----|--8-------8-------8-----8-----|
--7-------7-------7-----7-----|--7-------7-------7-----7-----|
--6-------6-------6-----6-----|--6-------6-------6-----6-----|
--5-------5-------5-----5-----|--5-------5-------5-----5-----|


                                        NH                                   
  E.  E.  E.  E.  E  E  E  E     Q      Q       E.  E.  E.  E.  E  E  E  E   
------------------------------|--------------|------------------------------|
------------------------------|--------------|------------------------------|
--8-------8-------8-----8-----|-------<>5----|--8-------8-------8-----8-----|
--7-------7-------7-----7-----|-------<>5----|--7-------7-------7-----7-----|
--6-------6-------6-----6-----|--2-----------|--6-------6-------6-----6-----|
--5-------5-------5-----5-----|--1-----------|--5-------5-------5-----5-----|


                                   NH   NH   NH   NH  
  E.  E.  E.  E.  E  E  E  E       E    E    E    E   
------------------------------|----------------------|
------------------------------|----------------------|
--8-------8-------8-----8-----|-----------------<>5--|
--7-------7-------7-----7-----|--<>5--<>5--<>5-------|
--6-------6-------6-----6-----|----------------------|
--5-------5-------5-----5-----|----------------------|


                                                                       NH    
  E.  E.  E.  E.  E  E  E  E     E.  E.  E.  E.  E  E  E  E     Q      Q     
------------------------------|------------------------------|--------------|
------------------------------|------------------------------|--------------|
--8-------8-------8-----8-----|--8-------8-------8-----8-----|-------<>5----|
--7-------7-------7-----7-----|--7-------7-------7-----7-----|-------<>5----|
--6-------6-------6-----6-----|--6-------6-------6-----6-----|--2-----------|
--5-------5-------5-----5-----|--5-------5-------5-----5-----|--1-----------|


  E.  E.  E.  E.  E  E  E  E     E.  E.  E.  E.  E  E  E  E   
------------------------------|------------------------------|
------------------------------|------------------------------|
--8-------8-------8-----8-----|--8-------8-------8-----8-----|
--7-------7-------7-----7-----|--7-------7-------7-----7-----|
--6-------6-------6-----6-----|--6-------6-------6-----6-----|
--5-------5-------5-----5-----|--5-------5-------5-----5-----|


    NH   NH   NH   NH                                 
    E    E    E    E     E.  E.  E.  E.  E  E  E  E   
----------------------|------------------------------|
----------------------|------------------------------|
-----------------<>5--|--8-------8-------8-----8-----|
--<>5--<>5--<>5-------|--7-------7-------7-----7-----|
----------------------|--6-------6-------6-----6-----|
----------------------|--5-------5-------5-----5-----|


                                        NH                                   
  E.  E.  E.  E.  E  E  E  E     Q      Q       E.  E.  E.  E.  E  E  E  E   
------------------------------|--------------|------------------------------|
------------------------------|--------------|------------------------------|
--8-------8-------8-----8-----|-------<>5----|--8-------8-------8-----8-----|
--7-------7-------7-----7-----|-------<>5----|--7-------7-------7-----7-----|
--6-------6-------6-----6-----|--2-----------|--6-------6-------6-----6-----|
--5-------5-------5-----5-----|--1-----------|--5-------5-------5-----5-----|


                                   NH   NH   NH   NH  
  E.  E.  E.  E.  E  E  E  E       E    E    E    E   
------------------------------|----------------------|
------------------------------|----------------------|
--8-------8-------8-----8-----|-----------------<>5--|
--7-------7-------7-----7-----|--<>5--<>5--<>5-------|
--6-------6-------6-----6-----|----------------------|
--5-------5-------5-----5-----|----------------------|


                                                                       NH    
  E.  E.  E.  E.  E  E  E  E     E.  E.  E.  E.  E  E  E  E     Q      Q     
------------------------------|------------------------------|--------------|
------------------------------|------------------------------|--------------|
--8-------8-------8-----8-----|--8-------8-------8-----8-----|-------<>5----|
--7-------7-------7-----7-----|--7-------7-------7-----7-----|-------<>5----|
--6-------6-------6-----6-----|--6-------6-------6-----6-----|--2-----------|
--5-------5-------5-----5-----|--5-------5-------5-----5-----|--1-----------|


  E.  E.  E.  E.  E  E  E  E     E.  E.  E.  E.  E  E  E  E   
------------------------------|------------------------------|
------------------------------|------------------------------|
--8-------8-------8-----8-----|--8-------8-------8-----8-----|
--7-------7-------7-----7-----|--7-------7-------7-----7-----|
--6-------6-------6-----6-----|--6-------6-------6-----6-----|
--5-------5-------5-----5-----|--5-------5-------5-----5-----|


    NH   NH   NH   NH                                 
    E    E    E    E     E.  E.  E.  E.  E  E  E  E   
----------------------|------------------------------|
----------------------|------------------------------|
-----------------<>5--|--8-------8-------8-----8-----|
--<>5--<>5--<>5-------|--7-------7-------7-----7-----|
----------------------|--6-------6-------6-----6-----|
----------------------|--5-------5-------5-----5-----|


                                        NH    
  E.  E.  E.  E.  E  E  E  E     Q      Q     
------------------------------|--------------|
------------------------------|--------------|
--8-------8-------8-----8-----|-------<>5----|
--7-------7-------7-----7-----|-------<>5----|
--6-------6-------6-----6-----|--2-----------|
--5-------5-------5-----5-----|--1-----------|


  E   E   E  E  E   E   E  E   E   E      E   E  E  E   E   E   E   E   E   E   
--9--10---------9--10-------------14--|------------------------------------16--|
---------12--9---------12--9--11------|--10--11--8--9------------------14------|
--------------------------------------|----------------10--11------12----------|
--------------------------------------|------------------------13--------------|
--------------------------------------|----------------------------------------|
--------------------------------------|----------------------------------------|


   E   E  W                   W                Q     
--13--12-------------------|------------------------|
---------------------------|------------------------|
---------------------------|------------------------|
---------------------------|------------------------|
---------------------------|------------------------|
---------------------------|------------------------|


  E.  E.  E  H.             
--------------------------||
--------------------------||
--8-----------------------||
--7-----------------------||
--6-----------------------||
--5-----------------------||




Duration Legend
---------------
W - whole
H - half
Q - quarter
E - 8th
S - 16th
T - 32nd
X - 64th
. - note dotted
|-n-|  - n-tuplets


Tablature Legend
----------------
L - tied note
x - dead note
g - grace note
(n) - ghost note
> - accentuded note
NH - natural harmonic
AH - artificial harmonic
TH - tapped harmonic
SH - semi harmonic
PH - pitch harmonic
h - hammer on
p - pull off
b - bend
br - bendRelease
pb - preBend
pbr - preBendRelease
brb - bendReleaseBend
\n/ - tremolo bar dip
\n - tremolo bar dive
-/n - tremolo bar Release up
/n\ - tremolo bar inverted dip
/n - tremolo bar return
-\n - tremolo bar Release down
S - shift slide
s - legato slide
/ -  slide into from below or out of upwards
\ -  slide into from above or out of downwards
~ - vibrato
W - wide vibrato
tr - trill
TP - tremolo picking
T - tapping
S - slap
P - pop
< - fade in
^ - brush up
v - brush down

            
            
Suggest correction
Creating personal tab
Creating personal tab
You can edit any tab online and save it as your Personal.

You can edit, replace or remove any tab part or add personal notes – all changes will be seen only by you.

Personal tabs can be accessed anytime from any device, even offline.
Learn more »
Give kudos to tab author, rate the tab!
1 2 3 4 5
comments
print report bad tab
guest
You may want to rate the tab now too:
select rating
Wanna post a correction for this tab? Suggest correction