Oops, an error
Loading. Please wait.

Zombie Eyed tab

version 1
version 1

Whole song

  • Many live versions on youtube, saw them live 4x and asked Luke at a concert.
364 views 6 this week
no commentswrite comment
1 2 3 4 5
3 more votes to show rating
add to favorites
×
Save as Personal and add changes to this tab that will be seen only by you. Learn more ›
×
You can save this tab as Personal to edit and correct it or add notes. All changes will be seen only by you. Learn more »
launch autoscroll
font size
0
reset
how to read this tab
guitar tuner
edit
Autoscroll
slow
fast
+/-
esc
set tempo
stop
[Intro] (0:00)

eb|---------------------------------------------|
Bb|-----7b---------------------7b---------------|
Gb|--7p0--------------------7p0-----------------|
Db|----------9~~~9~9~~9------------7~~~7~7~~7---|
Ab|----------9~~~9~9~~9------------7~~~7~7~~7---|
Eb|----------7~~~7~7~~7------------5~~~5~5~~5---|

eb|---------------------------------------------|
Bb|-----7b--------------------------------------|
Gb|--7p0----------------------------------------| 
Db|----------9~~~9~9~~9-----------------9-------|
Ab|----------9~~~9~9~~9-----9-7-9-7-9-7-7-------|
Eb|----------7~~~7~7~~7-----0-0-0-0-0-0-0-------|

eb|-------------------|
Bb|-------------------|
Gb|-------------------| 
Db|---------------9---|
Ab|---9-7-9-7-9-7-7---|
Eb|---0-0-0-0-0-0-0---|

[Verse] (0:23)
  I hope it comforts you to know that I'm     alone
eb|-------------------------------------------------------|
Bb|-------------------------------------------------------|
Gb|-------------------------------------------------------|
Db|-------------------------------------------------------|
Ab|------------------------------------7~~7-7~~7-7~~7-7---|
Eb|------------------------------------5~~5-5~~5-5~~5-5---|

  Morphine has lied to me saying it'll be     alright
eb|-------------------------------------------------------|
Bb|-------------------------------------------------------|
Gb|-------------------------------------------------------|
Db|-------------------------------------------------------|
Ab|------------------------------------7~~7-7~~7-7~~7-7---|
Eb|------------------------------------5~~5-5~~5-5~~5-5---|

[Pre-chorus] (0:44)
  But I feel I've come to terms with myself and I belong away from your baton, babe
eb|------------------------------------------------------------------------------|
Bb|------------------------------------------------------------------------------|
Gb|------------------------------------------------------------------------------|
Db|--------------------------------------------------------7~~7~~7~~7~~7~~7~~7---|
Ab|--------------------------------------------------------7~~7~~7~~7~~7~~7~~7---|
Eb|-----4~~~~5~~~~0~~~~~~~4~~~~~~~~~~5~~~~~~~~~~2~~~~4~~~~~5~~5~~5~~5~~5~~5~~5---|

[Chorus] (0:55)
               Me and my           friends don't            feel that           weighed down 
eb|----------------------------------------------|--------------------------------------------|
Bb|--------------------------7b------------------|-----7b---------------------7b--------------|
Gb|-----------------------7p0--------------------|--7p0--------------------7p0----------------|
Db|--2~~~2~2---9~~~9~9~~9----------7~~~7~7~~7----|-----------9~~~9~9~~9----------7~~~7~7~~7---|
Ab|--2~~~2~2---9~~~9~9~~9----------7~~~7~7~~7----|-----------9~~~9~9~~9----------7~~~7~7~~7---|
Eb|--0~~~0~0---7~~~7~7~~7----------5~~~5~5~~5----|-----------7~~~7~7~~7----------5~~~5~5~~5---|

               Work, tear          Lie, fear                I'll be             right here  
eb|----------------------------------------------|--------------------------------------------|
Bb|-----7b---------------------7b----------------|-----7b---------------------7b--------------|
Gb|--7p0--------------------7p0------------------|--7p0--------------------7p0----------------|
Db|------------9~~~9~9~~9----------7~~~7~7~~7----|-----------9~~~9~9~~9----------7~~~7~7~~7---|
Ab|------------9~~~9~9~~9----------7~~~7~7~~7----|-----------9~~~9~9~~9----------7~~~7~7~~7---|
Eb|------------7~~~7~7~~7----------5~~~5~5~~5----|-----------7~~~7~7~~7----------5~~~5~5~~5---|

[Post-chorus] (1:16)
eb|----------------------------------------------|--------------------------------------------|
Bb|----------------------------------------------|--------------------------------------------|
Gb|----------------------------------------------|--------------------------------------------|
Db|-------------------------------2/6-6-6-6-6b---|-----------------------7~~7-7~~7-7~7~7~7-6b-|
Ab|--2~~2~~~---------------2~~2~~~---------------|-2~~2~~~---------------7~~7-7~~7-7~7~7~7----|
Eb|--0~~0~~~2/7-7-7-7-7b---0~~0~~~---------------|-0~~0~~~2/7-7-7-7-7b---5~~5-5~~5-5~5~5-5----|

[Verse 2] (1:26)
  If I'm a dog, then you're a swine and I'll be clean when you fly
eb|----------------------------------------------------------------------|
Bb|----------------------------------------------------------------------|
Gb|----------------------------------------------------------------------|
Db|----------------------------------------------------------------------|
Ab|---------------------------------------------------7~~7-7~~7-7~~7-7---|
Eb|---------------------------------------------------5~~5-5~~5-5~~5-5---|

  Well maybe I'm just hopped up on ideas Goddamn lately your weighs a ton but I'm all ears
eb|----------------------------------------------------------------------------------------|
Bb|----------------------------------------------------------------------------------------|
Gb|--9~~~~~~~~~~~~~~~~6~~~~~~~~~~~~~~~~~~~~~~~~~~9~~~~~~~~~~~~~~~~~~~~~~~~~~~6~~~~~~~~~~~~~|
Db|--9~~~~~~~~~~~~~~~~7~~~~~~~~~~~~~~~~~~~~~~~~~~9~~~~~~~~~~~~~~~~~~~~~~~~~~~7~~~~~~~~~~~~~|
Ab|--7~~~~~~~~~~~~~~~~7~~~~~~~~~~~~~~~~~~~~~~~~~~7~~~~~~~~~~~~~~~~~~~~~~~~~~~7~~~~~~~~~~~~~|
Eb|--0~~~~~~~~~~~~~~~~5~~~~~~~~~~~~~~~~~~~~~~~~~~0~~~~~~~~~~~~~~~~~~~~~~~~~~~5~~~~~~~~~~~~~|

[Pre-chorus] (1:46)
  But I feel I've come to terms with myself and I belong away from your baton, babe
eb|------------------------------------------------------------------------------|
Bb|------------------------------------------------------------------------------|
Gb|------------------------------------------------------------------------------|
Db|--------------------------------------------------------7~~7~~7~~7~~7~~7~~7---|
Ab|--------------------------------------------------------7~~7~~7~~7~~7~~7~~7---|
Eb|-----4~~~~5~~~~0~~~~~~~4~~~~~~~~~~5~~~~~~~~~~2~~~~4~~~~~5~~5~~5~~5~~5~~5~~5---|

[Chorus] (1:57)
              Me and my           friends don't            feel that           weighed down
eb|----------------------------------------------|--------------------------------------------|
Bb|--------------------------7b------------------|-----7b---------------------7b--------------|
Gb|-----------------------7p0--------------------|--7p0--------------------7p0----------------|
Db|--2~~~2~2---9~~~9~9~~9----------7~~~7~7~~7----|-----------9~~~9~9~~9----------7~~~7~7~~7---|
Ab|--2~~~2~2---9~~~9~9~~9----------7~~~7~7~~7----|-----------9~~~9~9~~9----------7~~~7~7~~7---|
Eb|--0~~~0~0---7~~~7~7~~7----------5~~~5~5~~5----|-----------7~~~7~7~~7----------5~~~5~5~~5---|

               Work, tear          Lie, fear                I'll be             right here   
eb|---------------------------------------------|---------------------------------------------|
Bb|-----7b---------------------7b---------------|-----7b---------------------7b---------------|
Gb|--7p0--------------------7p0-----------------|--7p0--------------------7p0-----------------|
Db|------------9~~~9~9~~9----------7~~~7~7~~7---|------------9~~~9~9~~9----------7~~~7~7~~7---|
Ab|------------9~~~9~9~~9----------7~~~7~7~~7---|------------9~~~9~9~~9----------7~~~7~7~~7---|
Eb|------------7~~~7~7~~7----------5~~~5~5~~5---|------------7~~~7~7~~7----------5~~~5~5~~5---|

[Bridge] (2:18)
                                I guess I'm just zombie eyed
eb|--------------------------------|---------------------------|
Bb|--------------------------------|---------------------------|
Gb|--------------------------------|---------------------------|
Db|--2~~~9~~9-7-9-7-9h11~~9~~5-6~~~|---------------------------|
Ab|--2~~~--------------------------|--7-7-7-7-7-7-7-7----------|
Eb|--0~~~--------------------------|--5-5-5-5-5-5-5-5--0-2-2-2-| x3

                                I guess I'm just zombie 
eb|--------------------------------|---------------------------|
Bb|--------------------------------|---------------------------|
Gb|--------------------------------|---------------------------|
Db|--2~~~9~~9-7-9-7-9h11~~9~~5-6~~~|---------------------------|
Ab|--2~~~--------------------------|--7-7-7-7-7-7-7-7----------|
Eb|--0~~~--------------------------|--5-5-5-5-5-5-5-5--0-2-----| Fourth time

[Chorus] (2:39)
     Eeeeeeeeeeeyeeeeeeeeeeeeeeeeeeeeeeeeeeeeeed                      I guess I'm just zombie
eb|------------------------------------------------|------------------------------------------|
Bb|------------------------------------------------|------------------------------------------|
Gb|------------------------------------------------|------------------------------------------|
Db|--2~~~2~2~~~9~~~9~9~~9~~~2~~~2~2~~~7~~~7~7~~7~~~|2~~~2~2~~~9~~~9~9~~9~~~-------------------|
Ab|--2~~~2~2~~~9~~~9~9~~9~~~2~~~2~2~~~7~~~7~7~~7~~~|2~~~2~2~~~9~~~9~9~~9~~~9~~7~~9~~7~~4~~7~~~|
Eb|--0~~~0~0~~~7~~~7~7~~7~~~0~~~0~0~~~5~~~5~5~~5~~~|0~~~0~0~~~7~~~7~7~~7~~~0~~0~~0~~0~~5~~5~~~|
  
     Eeeeyeeeeeed
eb|---------------------------------------------|---------------------------------------------|
Bb|-----7b---------------------7b---------------|-----7b--------------------------------------|
Gb|--7p0--------------------7p0-----------------|--7p0----------------------------------------|
Db|------------9~~~9~9~~9----------7~~~7~7~~7---|------------9~~~9~9~~9-----------------------|
Ab|------------9~~~9~9~~9----------7~~~7~7~~7---|------------9~~~9~9~~9------9-7-9-7-9-7-2----|
Eb|------------7~~~7~7~~7----------5~~~5~5~~5---|------------7~~~7~7~~7------0-0-0-0-0-0-0----|

eb|---------------------------------------------|------------------------------------0~~~~|
Bb|---------------------------------------------|------------------------------------0~~~~|
Gb|---------------------------------------------|------------------------------------1~~~~|
Db|---------------------------------------------|------------------------7~~~6~~~7~~~2~~~~|
Ab|------9-7-9-7-9-7-2~~~~~~~~9-7-9-7-9-7-2~~~~~|~~~9-7-9-7-9-7-2~~~~~~~~7~~~6~~~7~~~2~~~~|
Eb|------0-0-0-0-0-0-0~~~~~~~~0-0-0-0-0-0-0~~~~~|~~~0-0-0-0-0-0-0~~~~~~~~5~~~4~~~5~~~0~~~~|

****************
| b = bend
| h = hammer-on
| p = pull-off
| / = slide
****************

            
            
Suggest correction
Creating personal tab
Creating personal tab
You can edit any tab online and save it as your Personal.

You can edit, replace or remove any tab part or add personal notes – all changes will be seen only by you.

Personal tabs can be accessed anytime from any device, even offline.
Learn more »
Give kudos to tab author, rate the tab!
1 2 3 4 5
comments
print report bad tab
guest
You may want to rate the tab now too:
select rating
Wanna post a correction for this tab? Suggest correction