Oops, an error
Loading. Please wait.

Svenghali tab

1,089 views 1 this week
no commentswrite comment
1 2 3 4 5
3 more votes to show rating
add to favorites
×
Save as Personal and add changes to this tab that will be seen only by you. Learn more ›
×
You can save this tab as Personal to edit and correct it or add notes. All changes will be seen only by you. Learn more »
launch autoscroll
font size
0
reset
how to read this tab
guitar tuner
edit
Autoscroll
slow
fast
+/-
esc
set tempo
stop
Svenghali By The Disco Biscuits
Written By Jon "The Barber" Gutwillig

e|-3/5\3----------------------------------|
B|-3/5\3 --3/5\3--3--1-1---1-1--------1-1-|
G|---------2/4\2--0--0-0---0-0--------0-0-|
D|-------------------0h2---2-2--------0h2-|
A|----------------------------------------|
E|----------------------------------------|

e|----------------------------------|
B|---------15--------12h13p12-------|
G|/12-12------12-12-----------------|
D|----------------------------14-15-|
A|----------------------------------|
E|----------------------------------|

and repeat that a bunch, as well.
I did figure out the other parts after that... let's see.. there's a
variation on the second part:

e|------15-----------------------|
B|----------------12h13p12-------|
G|15-15-----15-15----------------|
D|-------------------------14-15-|
A|-------------------------------|
E|-------------------------------|

there's a part right before the vocals where Barber
plays the vocal line.. something like:

e|---------------------------------------------------------|
B|---------------------------------------------------------|
G|-12-12-12-12-------12----12---14-14-14-14-12----14-12----|
D|-------------15-12----15---------------------15-------15-|
A|---------------------------------------------------------|
E|---------------------------------------------------------|

e|---------------------------|
B|12-12-12-12-------12----12-|
G|------------14-12----14----|
D|---------------------------|
A|---------------------------|
E|---------------------------|

around up there until you get it.

Riff 1

E|-----------------------------------------------------------|
B|--7/-9--/-7------------------------------------------------|
G|--8/-10-/-8--7/9--7--7-------------5---5-------5---------5-|
D|-------------7/9--7--5-------------5---5h7p5---5h7p5-----5-|
A|-------------------------------5h7---7-------7-------5h7---|
E|-----------------------------------------------------------|
                               *
repeat 2x, then w/ band 8 times
Mess around with the beginning of Riff 2 (up to *) using 
the end of Riff 1 (starting at *)

Riff 2      *
E|------------------------------|
B|------15~-------13p12---------|
G|-/12--------12--------10--12~-| repeat 8x
D|------------------------------|
A|------------------------------|
E|------------------------------|

Jam around with Riff 2 in the key of E then into Riff 3

Riff 3
E----------------------------------------------------------------------|
B----------------------------------------------------------------------|
G-12-12-12-12--------12----12------14-14-14-14-12---14-12-------12--14-|
D-------------15--12----15------------------------15------15-15--------|
A----------------------------------------------------------------------|
E----------------------------------------------------------------------|

E|-----------------------------------------------------------------|
B|-12-12-12-12-------12----12--------------------------------------|
G|-------------14-12----14------14-14-14-14--12----14--------12-14-|
D|----------------------------------------------15-----15-15-------|
A|-----------------------------------------------------------------|
E|-----------------------------------------------------------------|


Repeat Riff 3 a bunch with singing
Jam out in E
Riff 3 again then with lyrics
Riff 2 4x
Riff 1 4x

            
            
Suggest correction
Creating personal tab
Creating personal tab
You can edit any tab online and save it as your Personal.

You can edit, replace or remove any tab part or add personal notes – all changes will be seen only by you.

Personal tabs can be accessed anytime from any device, even offline.
Learn more »
Give kudos to tab author, rate the tab!
1 2 3 4 5
comments
print report bad tab
guest
You may want to rate the tab now too:
select rating
Wanna post a correction for this tab? Suggest correction