Oops, an error
Loading. Please wait.

City Of Angels bass

version 3
version 3

Whole song

Interactive

2,176 views 12 this week
1 commentread comment
1 2 3 4 5
x 4
add to favorites
×
Save as Personal and add changes to this tab that will be seen only by you. Learn more ›
×
You can save this tab as Personal to edit and correct it or add notes. All changes will be seen only by you. Learn more »
launch autoscroll
font size
0
reset
guitar tuner
edit
Autoscroll
slow
fast
+/-
esc
set tempo
stop
Author
This is my first tab. im hoping its near 100% but there's one part at the bridge 
which is hard to hear.
any comments - bloodsuckindemon@hotmail.com add or email i dont mind.
Tuning: Stadard.

intro

x1
|-------------------------------------------------------------------|
|-------------------------------------------------------------------|
|----------------5-55555555---------------------7-77777777777-------|
|-3-33333333-23--------------23-5-55555555--45----------------------|

then x1
_
| |---------------------------------------------------------------|
| |---------------------------------------------------------------|
| |-------------23-5-55555555------------------45--7-77777777777--|
| |-3-33333333-----------------23-5-555555555---------------------|
|
|or
|
| |----------------------------------------------------------------|
| |----------------------------------------------------------------|
| |----------------5-55555555-----------------------7-77777777777--|
| |-3-33333333-78--------------23-5-55555555-9-10------------------|
_


verse prt 1
this part x2

|------------------------------------------------------------------------------|
|-55555555555555555------------------------------------------------------------|
|-------------------5555555555555575-------------------7777777777777-[9-10-10--|i think]
|-------------------------------------5555555555555555-------------------------|


then verse prt 2 x1 [those are 12's]

|----------------------------------------------------------------------------------------|
|-55555555555555555----------------------------------------------------------------------|
|-------------------5555555555555555-1212121212121212121212121212-0-10-9--77777777777777-|
|----------------------------------------------------------------------------------------|

back to verse prt 1

|--------------------------------------------------------------------------------|
|-55555555555555555--------------------------------------------------------------|
|-------------------55555555555555555-------------------7777777777777--[9-10-10--|i think]
|-------------------------------------5555555555555555---------------------------|


chorus x2

|------------------------------------------------------------------|
|----------------------45754---------------------------------------|
|------------------555-------55-------------------7777777777777777-|
|-3333333333333333--------------5555555555555555-------------------|


verse x3


|-------------------------------------------------------------------------------|
|-55555555555555555-------------------------------------------------------------|
|-------------------5555555555555555-------------------7777777777777--[9-10-10--|i think]
|-------------------------------------5555555555555555--------------------------|


bridge [its either of these two. cant quite make it out][either of these two part x1]
_
| |----------------------------------------------------------------------|
| |----------------------------------------------------------------------|
| |-------------------5-555-555-555-55------------------7-777-777-777-77-|
| |--3-333-333-333-33------------------5-555-555-555-55------------------|
|
or
|
| |---------------------------------------------------------------------|
| |-5-555-555-555-55----------------------------------------------------|
| |------------------5-555-555-555-55------------------7-777-777-777-77-|
| |-----------------------------------5-555-555-555-55------------------|
_

cont. im sure this part isnt right. either of these two is x1
_
| |--------7~-54--------9~-|
| |-5~-45-----------67-----|
| |--------------7~--------|
| |------------------------|
|
or another possibillity is
|
| |-----------------------|
| |-5~-4----4--7~--5------|
| |------5~----------7~---| i think this way is closest.
| |-----------------------|
_

cont. x1

|---------------------------------------------------------------------|
|-5-555-555-555-55----------------------------------------------------|
|------------------5-555-555-555-55------------------7-777-777-777-77-|
|-----------------------------------5-555-555-555-55------------------|


chorus x3

|------------------------------------------------------------------|
|----------------------45754---------------------------------------|
|------------------555-------55-------------------7777777777777777-|
|-3333333333333333--------------5555555555555555-------------------|

Outro:

|------------|
|------------|
|----5~------|
|-3~----5~---|

            
            
Suggest correction
Creating personal tab
Creating personal tab
You can edit any tab online and save it as your Personal.

You can edit, replace or remove any tab part or add personal notes – all changes will be seen only by you.

Personal tabs can be accessed anytime from any device, even offline.
Learn more »
comments
print report bad tab
1 comment total.
0 reply
xxxxChrisTxxxx [tm] 10,247 Feb 06, 2014 12:19 PM

Great tab.

I think the end of the verses before going into the chorus goes..

|-----------------------------------------------------------------------|
|-55555555555555555-----------------------------------------------------|
|-------------------55555555555555555-----------------------------------|
|-------------------------------------5555555555555555--0000000000000---|


and my guess at the bridge is
|-----------------------------|
|-5~-4-5/12~-10-9-7~-5-4------|
|------------------------7~---|
|-----------------------------|


followed by
|-----------------------------------------------------------------------------------|
|-5-555-555-555-55-12-121212-121212-121212-1212-7-777-777-777-77--------------------|
|----------------------------------------------------------------7-777-777-777-77-|
|-----------------------------------------------------------------------------------|

guest
You may want to rate the tab now too:
select rating
Wanna post a correction for this tab? Suggest correction