Oops, an error
Loading. Please wait.

City Of Angels tab

version 5
version 5

Whole song

Interactive

28 views 1 this week
no commentswrite comment
1 2 3 4 5
3 more votes to show rating
add to favorites
×
Save as Personal and add changes to this tab that will be seen only by you. Learn more ›
×
You can save this tab as Personal to edit and correct it or add notes. All changes will be seen only by you. Learn more »
launch autoscroll
font size
0
reset
how to read this tab
guitar tuner
edit
Autoscroll
slow
fast
+/-
esc
set tempo
stop
Author
Difficulty
About this tab version
This version's intro is correct and has the correct timing of the music with some parts increased. Was this info helpful? Yes No
[Intro ]

e|---------------------------------------------------------------------------------------------------------|
B|---------------------------------------------------------------------------------------------------------|
G|------------------xx------7--7--7--7-7--7-7xx-----------------------xx------9--9--9--9-9--9-9--9-9-9-9-9-|
D|-5--5--5--5-5--5-5xx-4-5--7--7--7--7-7--7-7xx-4-5--7--7--7--7-7--7-7xx-6-7--9--9--9--9-9--9-9--9-9-9-9-9-|
A|-5--5--5--5-5--5-5xx-4-5--5--5--5--5-5--5-5xx-4-5--7--7--7--7-7--7-7xx-6-7--7--7--7--7-7--7-7--7-7-7-7-7-|
E|-3--3--3--3-3--3-3xx-2-3-------------------xx-2-3--5--5--5--5-5--5-5xx-4-5-------------------------------|

e|------------------------------------------------------------------------------------------------|
B|---------------------------------------------------------------------------------------------7--|
G|------------------xx-4-5--7--7--7--7-7--7-7xx-----------------------xx-6-7--9--9--9-9--9-9xx-9b-|
D|-5--5--5--5-5--5-5xx-4-5--7--7--7--7-7--7-7xx-4-5--7--7--7--7-7--7-7xx-6-7--9--9--9-9--9-9xx----|
A|-5--5--5--5-5--5-5xx-2-3--5--5--5--5-5--5-5xx-4-5--7--7--7--7-7--7-7xx-4-5--7--7--7-7--7-7xx----|
E|-3--3--3--3-3--3-3xx-----------------------xx-2-3--5--5--5--5-5--5-5xx--------------------xx----|

[Verse ]

e|---------------------------------------------------------------------------------------------------|
B|---------------------------------------------------------------------------------------------------|
G|-------------------------7--7-7-7--7-7-7--7-7-7--------------------------9--9-9-9--9-9-9--9-9-9--9-|
D|-5--5-5-5--5-5-5--5-5-5--7--7-7-7--7-7-7--7-7-7--7--7-7-7--7-7-7--7-7-7--9--9-9-9--9-9-9--9-9-9--9-|
A|-5--5-5-5--5-5-5--5-5-5--5--5-5-5--5-5-5--5-5-5--7--7-7-7--7-7-7--7-7-7--7--7-7-7--7-7-7--7-7-7--7-|
E|-3--3-3-3--3-3-3--3-3-3--------------------------5--5-5-5--5-5-5--5-5-5----------------------------|
      ****   ****   ****      ****   ****   ****      ****   ****   ****      ****   ****   ****      

e|---------------------------------------------------------------------------------------------------|
B|---------------------------------------------------------------------------------------------------|
G|-------------------------7--7-7-7--7-7-7--7-7-7--------------------------9--9-9-9--9-9-9--9-9-9--9-|
D|-5--5-5-5--5-5-5--5-5-5--7--7-7-7--7-7-7--7-7-7--7--7-7-7--7-7-7--7-7-7--9--9-9-9--9-9-9--9-9-9--9-|
A|-5--5-5-5--5-5-5--5-5-5--5--5-5-5--5-5-5--5-5-5--7--7-7-7--7-7-7--7-7-7--7--7-7-7--7-7-7--7-7-7--7-|
E|-3--3-3-3--3-3-3--3-3-3--------------------------5--5-5-5--5-5-5--5-5-5----------------------------|
      ****   ****   ****      ****   ****   ****      ****   ****   ****      ****   ****   ****      


e|---------------------------------------------------------------------------------------------------|
B|---------------------------------------------------------------------------------------------------|
G|-------------------------7--7-7-7--7-7-7--7-7-7--------------------------9--9-9-9--9-9-9--9-9-9--9-|
D|-5--5-5-5--5-5-5--5-5-5--7--7-7-7--7-7-7--7-7-7--7--7-7-7--7-7-7--7-7-7--9--9-9-9--9-9-9--9-9-9--9-|
A|-5--5-5-5--5-5-5--5-5-5--5--5-5-5--5-5-5--5-5-5--7--7-7-7--7-7-7--7-7-7--7--7-7-7--7-7-7--7-7-7--7-|
E|-3--3-3-3--3-3-3--3-3-3--------------------------5--5-5-5--5-5-5--5-5-5----------------------------|
      ****   ****   ****      ****   ****   ****      ****   ****   ****      ****   ****   ****      

e|---------------------------------------------------------------------------------------------------|
B|---------------------------------------------------------------------------------------------------|
G|-------------------------7--7-7-7--7-7-7--7-7-7--------------------------9--9-9-9--9-9-9--9-9-9--9-|
D|-5--5-5-5--5-5-5--5-5-5--7--7-7-7--7-7-7--7-7-7--7--7-7-7--7-7-7--7-7-7--9--9-9-9--9-9-9--9-9-9--9-|
A|-5--5-5-5--5-5-5--5-5-5--5--5-5-5--5-5-5--5-5-5--7--7-7-7--7-7-7--7-7-7--7--7-7-7--7-7-7--7-7-7--7-|
E|-3--3-3-3--3-3-3--3-3-3--------------------------5--5-5-5--5-5-5--5-5-5----------------------------|
      ****   ****   ****      ****   ****   ****      ****   ****   ****      ****   ****   ****      

[Chorus ]

e|----------------------------------------------------------------------------------------------------------|
B|----------------------------------------------------------------------------------------------------------|
G|--------------------------7--7--7--7-7--7-7--7-7-7--------------------------9--9--9--9-9--9-9--9-9-9--9-9-|
D|-5--5--5--5-5--5-5--5-5-5-7--7--7--7-7--7-7--7-7-7-7--7--7--7-7--7-7--7-7-7-9--9--9--9-9--9-9--9-9-9--9-9-|
A|-5--5--5--5-5--5-5--5-5-5-5--5--5--5-5--5-5--5-5-5-7--7--7--7-7--7-7--7-7-7-7--7--7--7-7--7-7--7-7-7--7-7-|
E|-3--3--3--3-3--3-3--3-3-3--------------------------5--5--5--5-5--5-5--5-5-5-------------------------------|

e|----------------------------------------------------------------------------------------------------------|
B|----------------------------------------------------------------------------------------------------------|
G|--------------------------7--7--7--7-7--7-7--7-7-7--------------------------9--9--9--9-9--9-9--9-9-9--9-9-|
D|-5--5--5--5-5--5-5--5-5-5-7--7--7--7-7--7-7--7-7-7-7--7--7--7-7--7-7--7-7-7-9--9--9--9-9--9-9--9-9-9--9-9-|
A|-5--5--5--5-5--5-5--5-5-5-5--5--5--5-5--5-5--5-5-5-7--7--7--7-7--7-7--7-7-7-7--7--7--7-7--7-7--7-7-7--7-7-|
E|-3--3--3--3-3--3-3--3-3-3--------------------------5--5--5--5-5--5-5--5-5-5-------------------------------|

[Verse ]

e|---------------------------------------------------------------------------------------------------|
B|---------------------------------------------------------------------------------------------------|
G|-------------------------7--7-7-7--7-7-7--7-7-7--------------------------9--9-9-9--9-9-9--9-9-9--9-|
D|-5--5-5-5--5-5-5--5-5-5--7--7-7-7--7-7-7--7-7-7--7--7-7-7--7-7-7--7-7-7--9--9-9-9--9-9-9--9-9-9--9-|
A|-5--5-5-5--5-5-5--5-5-5--5--5-5-5--5-5-5--5-5-5--7--7-7-7--7-7-7--7-7-7--7--7-7-7--7-7-7--7-7-7--7-|
E|-3--3-3-3--3-3-3--3-3-3--------------------------5--5-5-5--5-5-5--5-5-5----------------------------|
      ****   ****   ****      ****   ****   ****      ****   ****   ****      ****   ****   ****      

e|---------------------------------------------------------------------------------------------------|
B|---------------------------------------------------------------------------------------------------|
G|-------------------------7--7-7-7--7-7-7--7-7-7--------------------------9--9-9-9--9-9-9--9-9-9--9-|
D|-5--5-5-5--5-5-5--5-5-5--7--7-7-7--7-7-7--7-7-7--7--7-7-7--7-7-7--7-7-7--9--9-9-9--9-9-9--9-9-9--9-|
A|-5--5-5-5--5-5-5--5-5-5--5--5-5-5--5-5-5--5-5-5--7--7-7-7--7-7-7--7-7-7--7--7-7-7--7-7-7--7-7-7--7-|
E|-3--3-3-3--3-3-3--3-3-3--------------------------5--5-5-5--5-5-5--5-5-5----------------------------|
      ****   ****   ****      ****   ****   ****      ****   ****   ****      ****   ****   ****      

e|---------------------------------------------------------------------------------------------------|
B|---------------------------------------------------------------------------------------------------|
G|-------------------------7--7-7-7--7-7-7--7-7-7--------------------------9--9-9-9--9-9-9--9-9-9--9-|
D|-5--5-5-5--5-5-5--5-5-5--7--7-7-7--7-7-7--7-7-7--7--7-7-7--7-7-7--7-7-7--9--9-9-9--9-9-9--9-9-9--9-|
A|-5--5-5-5--5-5-5--5-5-5--5--5-5-5--5-5-5--5-5-5--7--7-7-7--7-7-7--7-7-7--7--7-7-7--7-7-7--7-7-7--7-|
E|-3--3-3-3--3-3-3--3-3-3--------------------------5--5-5-5--5-5-5--5-5-5----------------------------|
      ****   ****   ****      ****   ****   ****      ****   ****   ****      ****   ****   ****      

[Chorus ]

e|----------------------------------------------------------------------------------------------------------|
B|----------------------------------------------------------------------------------------------------------|
G|--------------------------7--7--7--7-7--7-7--7-7-7--------------------------9--9--9--9-9--9-9--9-9-9--9-9-|
D|-5--5--5--5-5--5-5--5-5-5-7--7--7--7-7--7-7--7-7-7-7--7--7--7-7--7-7--7-7-7-9--9--9--9-9--9-9--9-9-9--9-9-|
A|-5--5--5--5-5--5-5--5-5-5-5--5--5--5-5--5-5--5-5-5-7--7--7--7-7--7-7--7-7-7-7--7--7--7-7--7-7--7-7-7--7-7-|
E|-3--3--3--3-3--3-3--3-3-3--------------------------5--5--5--5-5--5-5--5-5-5-------------------------------|

e|----------------------------------------------------------------------------------------------------------|
B|----------------------------------------------------------------------------------------------------------|
G|--------------------------7--7--7--7-7--7-7--7-7-7--------------------------9--9--9--9-9--9-9--9-9-9--9-9-|
D|-5--5--5--5-5--5-5--5-5-5-7--7--7--7-7--7-7--7-7-7-7--7--7--7-7--7-7--7-7-7-9--9--9--9-9--9-9--9-9-9--9-9-|
A|-5--5--5--5-5--5-5--5-5-5-5--5--5--5-5--5-5--5-5-5-7--7--7--7-7--7-7--7-7-7-7--7--7--7-7--7-7--7-7-7--7-7-|
E|-3--3--3--3-3--3-3--3-3-3--------------------------5--5--5--5-5--5-5--5-5-5-------------------------------|

[Bridge ]

e|--------------------------------|
B|--------------------------------|
G|----------7~----------------9~--|
D|-5~-------7~-------7~-------9~--|
A|-5~-------5~-------7~-------7~--|
E|-3~----------------5~-----------|

e|--------------------------------|
B|--------------------------------|
G|----------7~----------------9~--|
D|-5~-------7~-------7~-------9~--|
A|-5~-------5~-------7~-------7~--|
E|-3~----------------5~-----------|

[Verse ]

e|---------------------------------------------------------------------------------------------------|
B|---------------------------------------------------------------------------------------------------|
G|-------------------------7--7-7-7--7-7-7--7-7-7--------------------------9--9-9-9--9-9-9--9-9-9--9-|
D|-5--5-5-5--5-5-5--5-5-5--7--7-7-7--7-7-7--7-7-7--7--7-7-7--7-7-7--7-7-7--9--9-9-9--9-9-9--9-9-9--9-|
A|-5--5-5-5--5-5-5--5-5-5--5--5-5-5--5-5-5--5-5-5--7--7-7-7--7-7-7--7-7-7--7--7-7-7--7-7-7--7-7-7--7-|
E|-3--3-3-3--3-3-3--3-3-3--------------------------5--5-5-5--5-5-5--5-5-5----------------------------|
      ****   ****   ****      ****   ****   ****      ****   ****   ****      ****   ****   ****      

[Chorus ]

e|----------------------------------------------------------------------------------------------------------|
B|----------------------------------------------------------------------------------------------------------|
G|--------------------------7--7--7--7-7--7-7--7-7-7--------------------------9--9--9--9-9--9-9--9-9-9--9-9-|
D|-5--5--5--5-5--5-5--5-5-5-7--7--7--7-7--7-7--7-7-7-7--7--7--7-7--7-7--7-7-7-9--9--9--9-9--9-9--9-9-9--9-9-|
A|-5--5--5--5-5--5-5--5-5-5-5--5--5--5-5--5-5--5-5-5-7--7--7--7-7--7-7--7-7-7-7--7--7--7-7--7-7--7-7-7--7-7-|
E|-3--3--3--3-3--3-3--3-3-3--------------------------5--5--5--5-5--5-5--5-5-5-------------------------------|

e|----------------------------------------------------------------------------------------------------------|
B|----------------------------------------------------------------------------------------------------------|
G|--------------------------7--7--7--7-7--7-7--7-7-7--------------------------9--9--9--9-9--9-9--9-9-9--9-9-|
D|-5--5--5--5-5--5-5--5-5-5-7--7--7--7-7--7-7--7-7-7-7--7--7--7-7--7-7--7-7-7-9--9--9--9-9--9-9--9-9-9--9-9-|
A|-5--5--5--5-5--5-5--5-5-5-5--5--5--5-5--5-5--5-5-5-7--7--7--7-7--7-7--7-7-7-7--7--7--7-7--7-7--7-7-7--7-7-|
E|-3--3--3--3-3--3-3--3-3-3--------------------------5--5--5--5-5--5-5--5-5-5-------------------------------|

e|----------------------------------------------------------------------------------------------------------|
B|----------------------------------------------------------------------------------------------------------|
G|--------------------------7--7--7--7-7--7-7--7-7-7--------------------------9--9--9--9-9--9-9--9-9-9--9-9-|
D|-5--5--5--5-5--5-5--5-5-5-7--7--7--7-7--7-7--7-7-7-7--7--7--7-7--7-7--7-7-7-9--9--9--9-9--9-9--9-9-9--9-9-|
A|-5--5--5--5-5--5-5--5-5-5-5--5--5--5-5--5-5--5-5-5-7--7--7--7-7--7-7--7-7-7-7--7--7--7-7--7-7--7-7-7--7-7-|
E|-3--3--3--3-3--3-3--3-3-3--------------------------5--5--5--5-5--5-5--5-5-5-------------------------------|

e|----------------------------------------------------------------------------------------------------------|
B|----------------------------------------------------------------------------------------------------------|
G|--------------------------7--7--7--7-7--7-7--7-7-7--------------------------9--9--9--9-9--9-9--9-9-9--9-9-|
D|-5--5--5--5-5--5-5--5-5-5-7--7--7--7-7--7-7--7-7-7-7--7--7--7-7--7-7--7-7-7-9--9--9--9-9--9-9--9-9-9--9-9-|
A|-5--5--5--5-5--5-5--5-5-5-5--5--5--5-5--5-5--5-5-5-7--7--7--7-7--7-7--7-7-7-7--7--7--7-7--7-7--7-7-7--7-7-|
E|-3--3--3--3-3--3-3--3-3-3--------------------------5--5--5--5-5--5-5--5-5-5-------------------------------|

[Outro ]

e|------------------------|
B|------------------------|
G|----------7~------------|
D|-5~-------7~-------7~---|
A|-5~-------5~-------7~---|
E|-3~----------------5~---|

=====================================================================

b=bend 
*=palm mute 
x=dead note
~=sustain the note 

            
            
Suggest correction
Creating personal tab
Creating personal tab
You can edit any tab online and save it as your Personal.

You can edit, replace or remove any tab part or add personal notes – all changes will be seen only by you.

Personal tabs can be accessed anytime from any device, even offline.
Learn more »
Give kudos to tab author, rate the tab!
1 2 3 4 5
comments
print report bad tab
guest
You may want to rate the tab now too:
select rating
Wanna post a correction for this tab? Suggest correction