Oops, an error
Loading. Please wait.
We have an official Dismantle Me tab made by UG professional guitarists. Check out the tab »
×
2,591 views 3 this week
1 commentread comment
1 2 3 4 5
2 more votes to show rating
add to favorites
×
Save as Personal and add changes to this tab that will be seen only by you. Learn more ›
×
You can save this tab as Personal to edit and correct it or add notes. All changes will be seen only by you. Learn more »
launch autoscroll
font size
0
reset
guitar tuner
edit
Autoscroll
slow
fast
+/-
esc
set tempo
stop
Author
Difficulty
-------------------------------------------------------------------------------
			             Dismantle Me- The Distillers
-------------------------------------------------------------------------------

Tabbed By : LacesOut
e-mail: Lacesoutlili926@yahoo.com

Tuning: Standard
>= play 8 times >>=play 16 times

Listen for the rythm.

Verse 1st part
G|-----------------------------------------------------------------------------|
D|----------------6>-777777-66-------------------------------------------------|
A|-----------7>>-----------------------7777777777777-666-----------------------|
E|--4>--5>---------------------------------------------------------------------|


Verse 2nd part (starts right after the 1st part)
G|-----------------------------------------------------------------------------|
D|-----------------------------------------------------------------------------|
A|--------------7>>------------------------------------------------------------|
E|----4>--5>----------------4>--555555-44-----0>>------------------------------|


Chorus
"I want to bury you oh  want to bury you"
G|-----------------------------------------------------------------------------|
D|-----------------------------------------------------------------------------|
A|-----------7>>-----------777777777-------------------------------------------|
E|---4>-5>--------4>-5>--------------------------------------------------------|

Then play the Verse agian
G|-----------------------------------------------------------------------------|
D|----------------6>-777777-66-------------------------------------------------|
A|-----------7>>-----------------------7777777777777-666-----------------------|
E|--4>--5>---------------------------------------------------------------------|


Verse 2nd part (starts right after the 1st part)
G|-----------------------------------------------------------------------------|
D|-----------------------------------------------------------------------------|
A|--------------7>>------------------------------------------------------------|
E|----4>--5>----------------4>--555555-44-----0>>------------------------------|


Play this chorus (a little different then the first chorus or whatever you want to call it)
G|-----------------------------------------------------------------------------|
D|-----------------------------------------------------------------------------|
A|--------7>-----------------------------------7>>-----------777777777---------|
E|--4>-5>---------4>-555555-44-0>>-----4>-5>--------4>-5>----------------------|


Dismantle me part
"dismantle me......."
G|-----------------------------------------------------------------------------|
D|-----------------------------------------------------------------------------|
A|------------7>>-----------7>>--------------7>>-------------------------------|
E|----4>-5>----------4>-5>-----------4>-5>-------------------------------------|


Bridge #2
" Unless its warm and humid on........."
G|-----------8h9-9-------8h9-9--------8h9-9--------8h9-9-----------------------|
D|-------6-7---------6-7-----------6-7----------6-7----------------------------|
A|-----------------------------------------------------------------------------|
E|-----------------------------------------------------------------------------|


Solo thing
After the scream
G|-----------------------------------------------------------------------------|
D|-----------------------------------------------------------------------------|
A|-----5------6--7>>------5--------6-7>>-------6666777766667777666677777-------|
E|44444---55555------44444---55555-------4>-5>---------------------------------|


Dismantle me part
G|-----------------------------------------------------------------------------|
D|-----------------------------------------------------------------------------|
A|------------7>>-----------7>>--------------7>>-------------------------------|
E|----4>-5>----------4>-5>-----------4>-5>-------------------------------------|

Ending
"And the sky is......."
G|-----------------------------------------------------------------------------|
D|-----------------------------------------------------------------------------|
A|---------7>-----------777777777----------------------------------------------|
E|---4>-5>--------4>-5>--------------------------------------------------------|

Sorry if there are any mistakes but this is near perfect
| /  slide up
| \  slide down
| h  hammer-on
| p  pull-off
| ~  vibrato
| +  harmonic
| x  Mute note
===============================================================================

            
            
Suggest correction
Creating personal tab
Creating personal tab
You can edit any tab online and save it as your Personal.

You can edit, replace or remove any tab part or add personal notes – all changes will be seen only by you.

Personal tabs can be accessed anytime from any device, even offline.
Learn more »
Give kudos to tab author, rate the tab!
1 2 3 4 5
comments
print report bad tab
1 comment total.
+1 reply
haydeN64 302 May 04, 2011 05:09 PM

just curious, wouldn't the "I want to bury you" part be more like

A|-------7>>-------777777777-|
E|-3>-7>-----3>-7>-----------|

thats what it sounds like atleast.

and then the second time around... a little more like

A|-------7>>-3>-5>-------------7>>-------777777777-|
E|-3>-7>-----------5-0>>-3>-7>-----3>-7>-----------|

just how it sounds to me anyway, i know that it's not allways the case. the rest of the tab is good though

guest
You may want to rate the tab now too:
select rating
Wanna post a correction for this tab? Suggest correction