Oops, an error
Loading. Please wait.

The Hunger bass

version 5
version 5

Whole song

Interactive

3,957 views 9 this week
1 commentread comment
1 2 3 4 5
x 4
add to favorites
×
Save as Personal and add changes to this tab that will be seen only by you. Learn more ›
×
You can save this tab as Personal to edit and correct it or add notes. All changes will be seen only by you. Learn more »
launch autoscroll
font size
0
reset
guitar tuner
edit
Autoscroll
slow
fast
+/-
esc
set tempo
stop
Author
|Play 1x| Chorus [x4]
G|-----|---------------------|
D|-----|---------------------|
A|-----|---------------------|
E|-12\-|-3-3-3-000-1-1-1-000-|

Verse [x6]
G|-----------------------------------------|
D|-----------------------------------------|
A|-0-x-000-2-3-x-333-------------2-x-22/33-|
E|-------------------3-1-x-111-0-----------|

Chorus [x7]
G|---------------------|
D|---------------------|
A|---------------------|
E|-3-3-3-000-1-1-1-000-|

Bridge [x1]
G|--------------|
D|--------------|
A|--------------|
E|-3--33--0--00-|

Verse [x6] w/Guitar Solo
G|-----------------------------------------|
D|-----------------------------------------|
A|-0-x-000-2-3-x-333-------------2-x-22/33-|
E|-------------------3-1-x-111-0-----------|

Chorus [x11]
G|---------------------|
D|---------------------|
A|---------------------|
E|-3-3-3-000-1-1-1-000-|

Bridge 2 [x1]
G|--------------------|
D|--------------------|
A|--------------------|
E|-3--33/12--1212\5~~-|

The outro is the exact same as the beggining, do the slide once
and then repeat the the verse 10 times.
G|-----------------------------------------|
D|-----------------------------------------|
A|-0-x-000-2-3-x-333-------------2-x-22/33-|
E|-------------------3-1-x-111-0-----------|

then end song on E|--5~~-|

This is how I play the song and it sounds almost perfect,
but if you have any questions, feel free to drop me
a line at my hotmail, mind.shots@hotmail.com

Enjoi the tab, and the song. =]

            
            
Suggest correction
Creating personal tab
Creating personal tab
You can edit any tab online and save it as your Personal.

You can edit, replace or remove any tab part or add personal notes – all changes will be seen only by you.

Personal tabs can be accessed anytime from any device, even offline.
Learn more »
comments
print report bad tab
1 comment total.
0 reply
haydeN64 302 May 04, 2011 04:34 PM

this is right. though i usually play the 5 on E rather than the open A just because i like the thicker sound but regardless...sweet tab. 5/5

guest
You may want to rate the tab now too:
select rating
Wanna post a correction for this tab? Suggest correction