Oops, an error
Loading. Please wait.

Young Girl bass

version 1
version 1

Whole song

Interactive

1,249 views 1 this week
no commentswrite comment
1 2 3 4 5
3 more votes to show rating
add to favorites
×
Save as Personal and add changes to this tab that will be seen only by you. Learn more ›
×
You can save this tab as Personal to edit and correct it or add notes. All changes will be seen only by you. Learn more »
launch autoscroll
font size
0
reset
guitar tuner
edit
Autoscroll
slow
fast
+/-
esc
set tempo
stop
Author
Pretty straightforward. Cover on youtube if anyone's interested :) 

http://www.youtube.com/watch?v=3qpsw5m1Vqo

Intro (whole thing x2)
G|-------12-------11-------14-------11-------12-|
D|-10-10----10-10----10-10----10-10----10-10----|
A|----------------------------------------------|
E|----------------------------------------------|

G|-------------------------------------|
D|-----10-----9-----10-----9-----10/12-|
A|-8-8----8-8---8-8----8-8---8-8-------|
E|-------------------------------------|

G|-----------------------------------------------|
D|-------12-------11-------12-------11-------12\-|
A|-10-10----10-10----10-10----10-10----10-10-----|
E|-----------------------------------------------|

G|----------------------------------|
D|-----10-----9--10-10-9-9-10-10-9--|
A|-8-8----8-8-----------------------|
E|----------------------------------|

Chorus (whole thing x2)
G|-----------------|-----------------|
D|------0233220022-|------0233220022-|
A|-3-3-3-----------|-3-3-3-----------|
E|-----------------|-----------------|

G|-----------------|------------------|
D|------0233553322-|------------------|
A|-3-3-3-----------|------------------|
E|-----------------|-3-3-33-3-1-1-1-1-|

Verse (also whole thing x2)
G|------------------|------------------|
D|------------------|------------------|
A|-3-3333-------1h2-|-3-3333-------1h2-|
E|-------3-11111----|-------3-11111----|

G|------------------|------------------|
D|------------------|------------------|
A|-3-3333-------1h2-|------------------|
E|-------3-11111----|-3-33333-1-111111-|

Back to chorus x2
verse again x2

Bridge x2
G|--------------|
D|----3~--------|
A|-------3~-----|
E|-5~-------3-1-|

back to intro x2


            
            
Suggest correction
Creating personal tab
Creating personal tab
You can edit any tab online and save it as your Personal.

You can edit, replace or remove any tab part or add personal notes – all changes will be seen only by you.

Personal tabs can be accessed anytime from any device, even offline.
Learn more »
Give kudos to tab author, rate the tab!
1 2 3 4 5
comments
print report bad tab
guest
You may want to rate the tab now too:
select rating
Wanna post a correction for this tab? Suggest correction