Oops, an error
Loading. Please wait.

Ashley tab

12,161 views 6 this week
2 commentsread comments
1 2 3 4 5
x 7
add to favorites
×
Save as Personal and add changes to this tab that will be seen only by you. Learn more ›
×
You can save this tab as Personal to edit and correct it or add notes. All changes will be seen only by you. Learn more »
launch autoscroll
font size
0
reset
how to read this tab
guitar tuner
edit
Autoscroll
slow
fast
+/-
esc
set tempo
stop
Author
-------------------------------------------------------------------------------
                             ASHLEY - The Dodos
-------------------------------------------------------------------------------
Tabbed by: Carisa
Email: sasa00us@yahoo.com

Tuning: EADGBe 

Strumming is a bit difficult to figure out but this is the main idea in hand positioning. 

Intro

e|---------------------------------------------------------------------------|
B|---------0---------------0--------------0--------------0-------------------|
G|--4---------4---2------------2---0----------0----0--------0----------------|
D|-----0-------------0----------------0--------------0-----------------------|
A|---------------------------------------------------------------------------|
E|--3---3----3----3-----3----3-----3----3---3------3--3----3-----------------|

e|-------0--------------0----------------------------------------------------|
B|--1--------1---1----------1---------0----------------0---------------------|
G|----2------------2------------0----------0----0-----------0----------------|
D|-(2)----------(2)---------------2----------------2-------------------------|
A|--0---0--0-----0---0----0----(2)-------------------------------------------|
E|------------------------------0---0---0-------0---0-----0----------------|

e|---------0---------------0------------------0---------------0--------------|
B|--5----------5---8-----------8----7-------------7---0-------------0--------|
G|----0---------------0----------------0-----------------0-------------------|
D|---------------------------------------------------------------------------|
A|-(7)------------(7)--------------(7)---------------(7)---------------------|
E|--8-----8---8----8----8----8------8------8----8-----8-----8-----8----------|

e|-----------0----------------0----------------0----------------0------------|
B|--3-----------3----1-------------1---0------------0---0------------0-------|
G|-----0----------------0-----------------0----------------0-----------------|
D|---------------------------------------------------------------------------|
A|-(2)--------------(2)---------------(2)--------------(2)-------------------|
E|--3-----3---3------3------3-----3----3-----3---3------3----3----3----------|

Verse

e|---------------------------------------------------------------------------|
B|---------0---------------0--------------0--------------0-------------------|
G|--4---------4---2------------2---0----------0----0--------0----------------|
D|-----0-------------0----------------0--------------0-----------------------|
A|---------------------------------------------------------------------------|
E|--3---3----3----3-----3----3-----3----3---3------3--3----3-----------------|

e|-------0--------------0----------------------------------------------------|
B|--1--------1---1----------1---------0----------------0---------------------|
G|----2------------2------------0----------0----0-----------0----------------|
D|-(2)----------(2)---------------2----------------2-------------------------|
A|--0---0--0-----0---0----0----(2)-------------------------------------------|
E|------------------------------0---0---0-------0---0-----0------------------|

e|---------0---------------0------------------0---------------0--------------|
B|--5----------5---8-----------8----7-------------7---0-------------0--------|
G|----0---------------0----------------0-----------------0-------------------|
D|---------------------------------------------------------------------------|
A|-(7)------------(7)--------------(7)---------------(7)---------------------|
E|--8-----8---8----8----8----8------8------8----8-----8-----8-----8----------|

e|-----------0----------------0----------------0----------------0------------|
B|--3-----------3----1-------------1---0------------0---0------------0-------|
G|-----0----------------0-----------------0----------------0-----------------|
D|---------------------------------------------------------------------------|
A|-(2)--------------(2)---------------(2)--------------(2)-------------------|
E|--3-----3---3------3------3-----3----3-----3---3------3----3----3----------|
x2

Take my hand and lead me up
To Dolores
And leave me out in the street, I guess
It was for us

Chorus

e|---------------------------------------------0-------------------0---------|
B|---------0-----------------0----------1-----------1---1---------------1----|
G|--0----------0----0--------------0-------2----------------2----------------|
D|-----2----------------2--------------(2)-------------(2)-------------------|
A|-(2)-------------(2)------------------0----0----0-----0-------0-----0------|
E|--0----0----0-----0------0----0--------------------------------------------|

e|---------0---------------0------------------0---------------0--------------|
B|--5----------5---8-----------8----7-------------7---0-------------0--------|
G|----0---------------0----------------0-----------------0-------------------|
D|---------------------------------------------------------------------------|
A|-(7)------------(7)--------------(7)---------------(7)---------------------|
E|--8-----8---8----8----8----8------8------8----8-----8-----8-----8----------|
x3

e|-----------0----------------0----------------0----------------0------------|
B|--3-----------3----1-------------1---0------------0---0------------0-------|
G|-----0----------------0-----------------0----------------0-----------------|
D|---------------------------------------------------------------------------|
A|-(2)--------------(2)---------------(2)--------------(2)-------------------|
E|--3-----3---3------3------3-----3----3-----3---3------3----3----3----------|
x2

What are you thinking of, Ashley?
Who are you dreaming of, Ashley?
You come down from above, Ashley


Verse

e|---------------------------------------------------------------------------|
B|---------0---------------0--------------0--------------0-------------------|
G|--4---------4---2------------2---0----------0----0--------0----------------|
D|-----0-------------0----------------0--------------0-----------------------|
A|---------------------------------------------------------------------------|
E|--3---3----3----3-----3----3-----3----3---3------3--3----3-----------------|

e|-------0--------------0----------------------------------------------------|
B|--1--------1---1----------1---------0----------------0---------------------|
G|----2------------2------------0----------0----0-----------0----------------|
D|-(2)----------(2)---------------2----------------2-------------------------|
A|--0---0--0-----0---0----0----(2)-------------------------------------------|
E|------------------------------0---0---0-------0---0-----0--------------=---|

e|---------0---------------0------------------0---------------0--------------|
B|--5----------5---8-----------8----7-------------7---0-------------0--------|
G|----0---------------0----------------0-----------------0-------------------|
D|---------------------------------------------------------------------------|
A|-(7)------------(7)--------------(7)---------------(7)---------------------|
E|--8-----8---8----8----8----8------8------8----8-----8-----8-----8----------|

e|-----------0----------------0----------------0----------------0------------|
B|--3-----------3----1-------------1---0------------0---0------------0-------|
G|-----0----------------0-----------------0----------------0-----------------|
D|---------------------------------------------------------------------------|
A|-(2)--------------(2)---------------(2)--------------(2)-------------------|
E|--3-----3---3------3------3-----3----3-----3---3------3----3----3----------|
x2

You let me sleep and let me breathe
Where I need to
And fool my heart to think that I
Might have had you

Chorus

e|---------------------------------------------0-------------------0---------|
B|---------0-----------------0----------1-----------1---1---------------1----|
G|--0----------0----0--------------0-------2----------------2----------------|
D|-----2----------------2--------------(2)-------------(2)-------------------|
A|-(2)-------------(2)------------------0----0----0-----0-------0-----0------|
E|--0----0----0-----0------0----0--------------------------------------------|

e|---------0---------------0------------------0---------------0--------------|
B|--5----------5---8-----------8----7-------------7---0-------------0--------|
G|----0---------------0----------------0-----------------0-------------------|
D|---------------------------------------------------------------------------|
A|-(7)------------(7)--------------(7)---------------(7)---------------------|
E|--8-----8---8----8----8----8------8------8----8-----8-----8-----8----------|
x3

e|-----------0----------------0----------------0----------------0------------|
B|--3-----------3----1-------------1---0------------0---0------------0-------|
G|-----0----------------0-----------------0----------------0-----------------|
D|---------------------------------------------------------------------------|
A|-(2)--------------(2)---------------(2)--------------(2)-------------------|
E|--3-----3---3------3------3-----3----3-----3---3------3----3----3----------|
x2

What are you thinking of, Ashley?
Who are you dreaming of, Ashley?
You come down from above, Ashley

Break

e|---------------------------------------------------------------------------|
B|---------0----------------0----------------0--------------0----------------|
G|----0---------0------0---------0------0---------0----0---------0-----------|
D|-10---------------9----------------7---------------------------------------|
A|-12---12---12----10----10---10-----9----9-----9---9-----9----9-------------|
E|---------------------------------------------------------------------------|

e|---------------------------------------------------------------------------|
B|---------0----------------0--------------0--------0-------0-------0--------|
G|----0---------0------0---------0------0--------0-------0-------0-----------|
D|--5---------------7----------------5--------9-------7-------5--------------|
A|--7----7---7------9-----9---9------7-------10-------9-------7--------------|
E|---------------------------------------------------------------------------|
x2

e|---------------------------------------------------------------------------|
B|---------0----------------0----------------0--------------0----------------|
G|----0---------0------0---------0------0---------0----0---------0-----------|
D|-10---------------9----------------2---------------------------------------|
A|-12---12---12----10----10---10-----3----3-----3---3-----3----3-------------|
E|---------------------------------------------------------------------------|

e|---------------------------------------------------------------------------|
B|---------0----------------0--------------0--------0-------0-------0--------|
G|----0---------0------0---------0------0--------0-------0-------0-----------|
D|--5---------------7----------------5--------9-------7-------5--------------|
A|--7----7---7------9-----9---9------7-------10-------9-------7--------------|
E|---------------------------------------------------------------------------|

e|---------------------------------------------------------------------------|
B|---------0----------------0----------------0--------------0----------------|
G|----0---------0------0---------0------0---------0----0---------0-----------|
D|-10---------------9----------------7---------------------------------------|
A|-12---12---12----10----10---10-----9----9-----9---9-----9----9-------------|
E|---------------------------------------------------------------------------|

e|---------------------------------------------------------------------------|
B|---------0----------------0--------------0--------0-------0-------0--------|
G|----0---------0------0---------0------0--------0-------0-------0-----------|
D|--5---------------7----------------5--------9-------7-------5--------------|
A|--7----7---7------9-----9---9------7-------10-------9-------7--------------|
E|---------------------------------------------------------------------------|

e|---------------------------------------------------------------------------|
B|----------0----------------0----------------0--------0---------------------|
G|-----0--------0------2----------2------0--------0--------0-----------------|
D|-(2)-------------(2)---------------(2)-------------------------------------|
A|--3----3----3-----3-----3----3------3-----3---3---3----3-------------------|
E|---------------------------------------------------------------------------|

e|---------------------------------------------------------------------------|
B|----------0---------------0-------------0-------0-------0------0-----------|
G|-----0--------0-------2------2-------0-------4-------2-------0-------------|
D|-(2)--------------(2)-------------2--------2------2-------2----------------|
A|--0----0----0------0----0---0-----0--------0------0-------0----------------|
E|---------------------------------------------------------------------------|
x2

Next Part (I don't know what to call it...)

e|---------------------------------------------------------------------------|
B|---------------------------------------------------------------------------|
G|--------0---------------0--------------0-----------------0-----------------|
D|----2--------2-----2--------2------2---------2-----2----------2------------|
A|--2--------------0---------------2-----------------------------------------|
E|--0---0----0-----2----2---2------0---0-----0----0-----0-----0--------------|

e|---------------------------------------------------------------------------|
B|---------------------------------------------------------------------------|
G|--------0---------------0--------------0-----------------0-----------------|
D|----2--------2-----2--------2------2---------2-----2----------2------------|
A|--2--------------0---------------2-----------------------------------------|
E|--0---0----0-----2----2---2------0---0-----0----0-----0-----0--------------|

e|---------------------------------------------------------------------------|
B|-----------0---------------0---------------0----------------0--------------|
G|-----0---------0------2---------2------0---------0----0----------0---------|
D|--2----------------2----------------2--------------------------------------|
A|--3-----3----3-----3----3-----3-----3----3----3----3-----3----3------------|
E|---------------------------------------------------------------------------|

e|---------------------------------------------------------------------------|
B|----------0---------------0---------------0---------------0----------------|
G|-----0--------0-------2------2-------0---------0----0-----------0----------|
D|--2----------------2--------------2----------------------------------------|
A|--0----0----0------0----0---0-----0----0-----0---0-----0-----0-------------|
E|---------------------------------------------------------------------------|
x2

Take this hammer-handed heart
And pull it off my back
Heavy on my shoulders
Stranded in the open sea
I wait there hoping that
You'll come back to see me


C G Am Em C

Em   Am     C
A-A-A-A-A-A-Ashley

e|------------------0--------------------------------------------------------|
B|------------------0--------------------------------------------------------|
G|------------------0--------------------------------------------------------|
D|------------------0--------------------------------------------------------|
A|------------------2--------------------------------------------------------|
E|--3-3-3-3-3-3-3-3-3--------------------------------------------------------|

| /  slide up
| \  slide down
| h  hammer-on
| p  pull-off
| ~  vibrato
| +  harmonic
| x  Mute note
===============================================================================


            
            
Suggest correction
Creating personal tab
Creating personal tab
You can edit any tab online and save it as your Personal.

You can edit, replace or remove any tab part or add personal notes – all changes will be seen only by you.

Personal tabs can be accessed anytime from any device, even offline.
Learn more »
comments
print report bad tab
2 comments total.
+1 reply
spitonastranger 20 Nov 26, 2010 07:51 PM

Fantastic tab man really good
in the version i've heard though he seems to be playing
3-3-3 in the bass the whole time on the first line rather than going 3-0-0 like it is in your version.

0 reply
skijunkie1124 84 Mar 24, 2014 08:57 PM

Revisiting this tab after 3+ years and you're totally right! If I can figure out how to change it, I'll fix the 3's in the bass on that first line.

guest
You may want to rate the tab now too:
select rating
Wanna post a correction for this tab? Suggest correction