Oops, an error
Loading. Please wait.

New Kid In School tab

version 1
version 1

Whole song

Interactive

10,759 views 15 this week
2 commentsread comments
1 2 3 4 5
x 7
add to favorites
×
Save as Personal and add changes to this tab that will be seen only by you. Learn more ›
×
You can save this tab as Personal to edit and correct it or add notes. All changes will be seen only by you. Learn more »
launch autoscroll
font size
0
reset
how to read this tab
guitar tuner
backing track
0:00
0:00
edit
Autoscroll
slow
fast
+/-
esc
set tempo
stop
Song: New Kid In School 
Artist: The Donnas
Tuning: Standard
Tabbed by: Iggy

Intro
e----------------|
B----------------|
G----------------|
D-5--10-8---8/10-|
A-5--10-8---8/10-|
E-3---8-6---6/-8-|

e---------------------|
B---------------------|
G---------------------|
D-5--10-8---8/10--6/5-|
A-5--10-8---8/10--6/5-|
E-3---8-6---6/-8--4/3-|

Repeat all through the verse

Pre-ChorusX2
"So what's your name..."
e--------------------|
B--------------------|
G-7-7-7--7-7-7-7-7-7-|
D-7-7-7--7-7-7-7-7-7-|
A-5-5-5--5-5-5-5-5-5-|
E--------------------|

"Tell me somethin'..."
Guitar 1
e--------------------------------------------|
B--------------------------------------------|
G-8--------------------10------12-12-12------|
D-8---------------8----10------12-12-12------|
A-6---------------8-----8------10-10-10------|
E-----------------6--------------------------|
|
|
Guitar 2 
e--------------------------------------------|
B-13^(15)-13--11-----------------------------|
G----------------12---14--14-14-15-15-14-12--|
D--------------------------------------------|
A--------------------------------------------|
E--------------------------------------------|

"come sit closer..."
Guitar 1
e-------------------------------|
B-------------------------------|
G-8---------------------7-------|
D-8---------------8-----7-------|
A-6---------------8-----5-------|
E-----------------6-------------|
|
|
Guitar 2 
e-------------------------------|
B-13^(15)-13--11----------------|
G----------------12-----11~~----|
D-------------------------------|
A-------------------------------|
E-------------------------------|

Chorus X2
"It aint that bad..."
e--------------------|
B--------------------|
G--------------------|
D-5-5---10-8---10-10-|
A-5-5---10-8---10-10-|
E-3-3----8-6----8--8-|

"You Can't Avoid it"
e----------------|
B----------------|
G----------------|
D-5------3-------|
A-5------3-------|
E-3------1-------|

"You Might as well enjoy it"
e----------------|
B----------------|
G-5------3-------|
D-5------3-------|
A-3------1-------|
E----------------|

"'Cuz"
e---|
B---|
G-7-|
D-7-|
A-5-|
E---|

"I Do...."
e---------------------|
B---------------------|
G-8-8-8-8-10-10-10-10-|
D-8-8-8-8-10-10-10-10-|
A-6-6-6-6--8--8--8--8-|
E---------------------|

Do the intro/VErse part

Guitar 2 does this
e----------------------|
B----------------------|
G----------------------|
D----------------------|
A-----1-3----5--5-3-1--|
E-3-3------------------|

e---------------------------|
B---------------------------|
G---------------------------|
D--------------------3-5-5*-|
A-------1-3---1----5--------|
E-3-3-3-----3---------------|

 * = Pinch harmonic

Verse

Pre-Chorus

Chorus

Solo
Guitar 1
e----------------|
B----------------|
G----------------|
D-5--10-8---8/10-|
A-5--10-8---8/10-|
E-3---8-6---6/-8-|
|
|
e--------------------------
B-3-----3------------------
G-5^(7)-5^(7)-X(improvise)-
D--------------------------
A--------------------------
E--------------------------

e---------------------|
B---------------------|
G---------------------|
D-5--10-8---8/10--6/5-|
A-5--10-8---8/10--6/5-|
E-3---8-6---6/-8--4/3-|
|
|
e--------------------|
B-3------------------|
G-5^(7)-X(improvise)-|
D--------------------|
A--------------------|
E--------------------|

Guitar 1
e----------------|
B----------------|
G----------------|
D-5--10-8---8/10-|
A-5--10-8---8/10-|
E-3---8-6---6/-8-|
|
|
e--------------------|
B-3------------------|
G-5^(7)v(5)p3-5-3----|
D-----------------5--|
A--------------------|
E--------------------|

e---------------------|
B---------------------|
G---------------------|
D-5--10-8---8/10--8/7-|
A-5--10-8---8/10--8/7-|
E-3---8-6---6/-8--6/5-|
|
|
e---------------------------|
B---------------------------|
G-------------3-5^(7)-5-3---|
D---3-5-3-5-3-------------5-|
A-5-------------------------|
E---------------------------|

Key Change
e-----------------|
B-----------------|
G-----------------|
D-7--12-10--10/12-|
A-7--12-10--10/12-|
E-5--10--8---8/10-|
|
|
e-----------------------------------|
B-----5---5---5-7^------12^(14)-10--|
G-----5---5---5-7^-9h11-------------|
D-5h7---7---7-----------------------|
A-----------------------------------|
E-----------------------------------|

e-----------------|
B-----------------|
G-----------------|
D-7--12-10--10/12-|
A-7--12-10--10/12-|
E-5--10--8---8/10-|
|
|
e-------------------------------------------|
B-----5---5---5--8-10---8-------------------|
G-----5---5---5-------9---9-7----7----------|
D-5h7---7---7-----------------10---10-7-----|
A---------------------------------------10--|
E-------------------------------------------|

e----------------|
B----------------|
G----------------|
D-5--10-8---8/10-|
A-5--10-8---8/10-|
E-3---8-6---6/-8-|
|
|
e-15--15--15--15--15--15---18--|
B-18^(20)(20)(20)(20)(20)-(20)-|
G------------------------------|
D------------------------------|
A------------------------------|
E------------------------------|

e---------------------|
B---------------------|
G---------------------|
D-5--10-8---8/10--8/7-|
A-5--10-8---8/10--8/7-|
E-3---8-6---6/-8--6/5-|
|
|
e-15--15--15--15--15--15---18--18-18h15----------------------|
B-18^(20)(20)(20)(20)(20)-(20)----------18-18h15-------------|
G------------------------------------------------17-17h15----|
D---------------------------------------------------------17-|
A------------------------------------------------------------|
E------------------------------------------------------------|
                                This part above this text i'm
                                not too sure about but the rest
                                is quite near 100% correct.

that's really all there is to know as the song repeats 
it's self after the solo.

E-mails to reptiliahasnoend@yahoo.com please.

            
            
Suggest correction
Creating personal tab
Creating personal tab
You can edit any tab online and save it as your Personal.

You can edit, replace or remove any tab part or add personal notes – all changes will be seen only by you.

Personal tabs can be accessed anytime from any device, even offline.
Learn more »
comments
print report bad tab
2 comments total.
+1 reply
shreddage1471 10 Mar 31, 2009 08:39 AM

wow sweet, i was pkayin this in rock band 2, and it was soo much fun, now its even more fun in real life!! woohoo thnx gr8 tab 4 a gr8 song

+1 reply
quebillah 10 Feb 06, 2010 02:52 AM

yeah this tab is good, everything you tabbed is perfect. except you are missing the little fills in the second verse.

guest
You may want to rate the tab now too:
select rating
Wanna post a correction for this tab? Suggest correction