Oops, an error
Loading. Please wait.

Cars Hiss By My Window tab

version 2
version 2

Whole song

Interactive

38,762 views 78 this week
no commentswrite comment
1 2 3 4 5
x 16
add to favorites
×
Save as Personal and add changes to this tab that will be seen only by you. Learn more ›
×
You can save this tab as Personal to edit and correct it or add notes. All changes will be seen only by you. Learn more »
launch autoscroll
font size
0
reset
how to read this tab
guitar tuner
edit
Autoscroll
slow
fast
+/-
esc
set tempo
stop
Author
Difficulty
Unregistered
intermediate
The Doors
Cars Hiss by my Window, off LA Woman
Standard Tuning, transcribed for one guitar. don't use a pick

  [Intro]
e|---------|
B|---------|
G|---------|
D|---0h1h2-|
A|-2-------|
E|---------|


  E7
e|----------------------------------------------------------|
B|--------2----0----------------------2----0----------------|
G|--------2----0h1--------------------2----0h1--------------|
D|--------2----0-------0h1h2----------2----0---------0h1h2--|
A|--------2h4--------2----------------2h4----------2--------|
E|--0--0-----------0-0----------0--0------------0--0--------|

  A7
e|------------0------------------------------0------------------|
B|------6/7---2------------------------6/7---2------------------|
G|------5/6---0-------0h1h2------------5/6---0-------0h1h2------|
D|------6/7---------2------------------6/7---------2------------|
A|-0--0----------0--0-------------0--0----------0--0------------|
E|--------------------------------------------------------------|

  E7 (short)
e|--------------------------------------------------x---------|
B|--------2----0----------------------2----0--------x---------|
G|--------2----0h1--------------------2----0h1------x---------|
D|--------2----0-------0h1h2----------2----0--------x---------|
A|--------2h4--------2----------------2h4-----------x---------|
E|--0--0-----------0-0----------0--0------------0-0-x---------|
                                                   (kinda palm-mute/slap)

MCC (Major chord change...B7, A7, E7, (A), E7, B7)

   B7                        A7
e|-2-4p2p0-------------------3-------0------------x--------------|
B|-2-------2--4p3p2---------------------3----2h3--x--------------|
G|-2----------------3-2-------------------0-------x--2h4p2p0-----|
D|-x------------------------------2/4--------2----x-----------/6-|
A|------------------------------0--------------------------------|
E|---------------------------------------------------------------|

   E7           (A)            E7         B7
e|---------------------------------------------------------------|
B|----------------------------------------0---0------------------|
G|----------------------------------------2---0------------------|
D|--0h2-0h2-0h2--0----0--------2----------1---0h1h2--------------|
A|------------------2---0-----------0h1h2---2--------------------|
E|-0----------------------3--0----0------------------------------|


[Intro]
E7 x2

    A7
The cars hiss by my window
Like the waves down on the beach

E7

    A7
The cars hiss by my window
Like the waves down on the beach

E7 (short)

MCC
I got this girl beside me
But she's out of reach


E7

 E7
Headlights thru my window
Shining on the wall

  E7 (w/fill)
e|-------------------------------------3~--0------0-------------------|
B|--------2----0------------------------------3b----0-----------------|
G|--------2----0h1------------------------------------2/4p2p0---------|
D|--------2----0-------0h1h2------------------0---------------2-------|
A|--------2h4--------2-------------2/4--------------------------------|
E|--0--0-----------0-0----------0--0------------------0---------------|

A7
Headlights thru my window
Shining on the wall

MCC
Can't hear my baby
Tho' I call and call

  [Solo]
e|--------3~--0------0--------------------------|
B|---------------3b----0------------------------|
G|-----------------------2/4p2p0----------------|
D|---------------0---------------2--------------|
A|----2/4---------------------------------------|
E|-0--0------------------0----------------------|     <- that part 3 times, then


e|----------------------------------------|
B|------/3--3--3--3--3--3--3--3--3--------|
G|------/4--4--4--4--4--4--4--4--4--------|
D|----------------------------------------|
A|----------------------------------------|
E|-0--0------------------0----------------|


e|------4p2p0----0-----------------------------|
B|------------2----x---------------------------|
G|-----------------x---------------------------|
D|-----------------x--2h4--2-------------------|
A|--0--0---------------------------------------|
E|---------------------------------------------|

you can figure out the rest

The cars hiss by my window
Like the waves down on the beach
The cars hiss by my window
Like the waves down on the beach
I got this girl beside me
But she's out of reach

Headlights thru my window
Shining on the wall
Headlights thru my window
Shining on the wall
Can't hear my baby
Tho' I call and call

Window started tremblin'
With those sonic booms
Window started to tremble
With those sonic boom, boom
A cold girl'll kill you
In a darkened room

            
            
Suggest correction
Creating personal tab
Creating personal tab
You can edit any tab online and save it as your Personal.

You can edit, replace or remove any tab part or add personal notes – all changes will be seen only by you.

Personal tabs can be accessed anytime from any device, even offline.
Learn more »
comments
print report bad tab
guest
Wanna post a correction for this tab? Suggest correction