Oops, an error
Loading. Please wait.

La Woman tab

version 3
version 3

Whole song

17,205 views 15 this week
4 commentsread comments
1 2 3 4 5
x 9
add to favorites
×
Save as Personal and add changes to this tab that will be seen only by you. Learn more ›
×
You can save this tab as Personal to edit and correct it or add notes. All changes will be seen only by you. Learn more »
launch autoscroll
font size
0
reset
how to read this tab
guitar tuner
backing track
0:00
0:00
edit
Autoscroll
slow
fast
+/-
esc
set tempo
stop
Author
The Doors - L.A. Woman (my_v.1.0)  16:46 14.02.2009


[Intro]

e|-8/9\7-\5-\3-----|-2/3-2-3-2-0-2---|------------------|------------------|
B|-----------------|-----------------|-2/3-2-3-2-0-2----|-3-2-3-2-0-2------|
G|-----------------|-----------------|------------------|------------------|
D|-----------------|-----------------|------------------|------------------|
A|-----------------|-----------------|------------------|------------------|
E|-----------------|-----------------|------------------|------------------|

e|-----------------------------------|-------------------------------------|
B|---------------(5)-(5)-(5)(5)-(5)--|---------------(5)(5)-(5)(5)-(5)-----|
G|-3/7-6-7-6-----(6)-(6)-(6)(6)-(6)--|-6/7-6-7-6-4-6-(6)(6)-(6)(6)-(6)-----|
D|-----------7-7---------------------|-------------------------------------|
A|-----------------------------------|-------------------------------------|
E|-----------------------------------|-------------------------------------|

e|---------------------------- (5)(5)(5)|-------------------------(5)(5)(5)|
B|---------------(5)-(5)(5)(5)-(5)(5)(5)|-----------(5)-(5)(5)(5)-(5)(5)(5)|
G|-3/7-6-7-6-----(6)-(6)(6)(6)-(6)(6)(6)|-6/7-6-----(6)-(6)(6)(6)-(6)(6)(6)|
D|-----------7-7------------------------|-------7-7-(7)--------------------|
A|--------------------------------------|----------------------------------|
E|--------------------------------------|----------------------------------|

e|-----------------|
B|-----------------|
G|-6/7-6-----------|
D|-------7-7-------|
A|-----------------|
E|-----------------|


"Well, I just got into town about an hour ago"
e|----------------------------------|
B|-8-7-5-7--------------------------|
G|---------5~-----------------------|
D|------------7-5-------------------|
A|----------------7-6-5-------------|
E|----------------------------------|


"Took a look around, see which way the wind blow"
e|----------------------------------|
B|-8-7-5-7--------------------------|
G|---------5~-----------------------|
D|------------7-5-------------------|
A|----------------7-6-5-------------|
E|----------------------------------|


"With a little girl in a Hollywood bungalow"
e|-----------------------------------|
B|-----------------------------------|
G|---------------------5~------------|
D|-7-5-7-5-7-5/7-7\5-7----5-7--------|
A|-----------------------------------|
E|-----------------------------------|


"Are you a lucky little lady in The City of Light"
e|-----------------------------------|
B|-------------------5---------------|
G|-7-6-7-6-7-6-7-6-7-----------------|
D|-----------------------------------|
A|-----------------------------------|
E|-----------------------------------|


"Or just another lost angel"


            G                  A
 "City at night"    "City at night"
e|----------3------------------5-----|
B|----------3------------------5-----|
G|----------4------------------6-----|
D|----------5------------------7-----|
A|----------5------------------7-----|
E|----------3------------------5-----|


            G                  A
 "City at night"    "City at night"
e|----------3------------------5-----|
B|----------3------------------5-----|
G|----------4------------------6-----|
D|----------5------------------7-----|
A|----------5------------------7-----|
E|----------3------------------5-----|


[Solo 1]

e|------------------------------------------------------------------------|
B|------------------------------------------------------------------------|
G|-------------0-2-4/6-4\2---2-------0-2-4-4/6-6-4\2-----2-2/6-6-4\2---2/6|
D|-------0-2-4-------------4---0-2-4------------------4--------------4----|
A|-0-2-4------------------------------------------------------------------|
E|------------------------------------------------------------------------|

e|-----------------|----0/5-5-5-7-5-7-7/9-7\5---5-5/7-9-9-9/10-10-10\9-9\--|
B|-----------------|--------------------------7----------------------------|
G|-6-4\2---2--2-2--|---2---------------------------------------------------|
D|-------4---2-2---|-2-----------------------------------------------------|
A|-----------------|-------------------------------------------------------|
E|-----------------|-------------------------------------------------------|

e|7-7\5-5--5\3-----|---------------------------------|---------------------|
B|-----------------|-2/3-2-3-2-3--3\2-0-2--3\2-------|---------------------|
G|-----------------|---------------------------2-2---|-/7-6-7-6------------|
D|-----------------|---------------------------------|-----------7-(7)-----|
A|-----------------|---------------------------------|---------------------|
E|-----------------|---------------------------------|---------------------|


"L.A. Woman"
e|-----------------|
B|--------5--------|
G|-7^-5-7----------|
D|-----------------|
A|-----------------|
E|-----------------|


"L.A. Woman"
e|-----------------|
B|-10~\8-----------|
G|-------5~--------|
D|-----------------|
A|-----------------|
E|-----------------|


"L.A. Woman Sunday afternoon"
e|-------------------|
B|-------------------|
G|-----------------5-|
D|-7-5-7-5-7-5-7-5---|
A|-------------------|
E|-------------------|


"L.A. Woman Sunday afternoon"
e|-------------------|
B|-7~----------------|
G|-7~-7-5------------|
D|--------7-5--------|
A|------------7------|
E|-------------------|


"L.A. Woman Sunday afternoon
Drive thru your suburbs"

             G                A
"Into your blues, into your blues, yeah"
e|-----------3-----|----------5------|-----------------|
B|-----------3-----|----------5------|-----------------|
G|-----------4-----|----------6------|-----------------|
D|-----------5-----|----------7------|-----------------|
A|-----------5-----|----------7------|-----------------|
E|-----------3-----|----------5------|-----------------|

              G                                  A
  "Into your blue-blue Blues"         "Into your blues"
e|------------3----|-----------------|-----------5-----|-------------------|
B|------------3----|-----------------|-----------5-----|-------------------|
G|------------4----|-----------------|-----------6-----|-------------------|
D|------------5----|-----------------|-----------7-----|-------------------|
A|------------5----|-----------------|-----------7-----|-------------------|
E|------------3----|-----------------|-----------5-----|-------------------|

"Ohh Yeah!!"



[Piano Solo]

A



   A     G           A     G           A     G           A     G
e|-----------------|-----------------|-----------------|-------------------|
B|-----2-0---------|-----2-0---------|-----2-0---------|-----2-0-----------|
G|---2-----0---0---|---2-----0---0---|---2-----0---0---|---2-----0---0-----|
D|-2---------0-----|-2---------0-----|-2---------0-----|-2---------0-------|
A|-----------------|-----------------|-----------------|-------------------|
E|-----------------|-----------------|-----------------|-------------------|

  A      G          A      G          A      G           A     G
 "I see your hair is burnin'"
e|-----------------|-----------------|-----------------|-------------------|
B|-----2-0---------|-----2-0---------|-----2-0---------|-----2-0-----------|
G|---2-----0---0---|---2-----0---0---|---2-----0---0---|---2-----0---0-----|
D|-2---------0-----|-2---------0-----|-2---------0-----|-2---------0-------|
A|-----------------|-----------------|-----------------|-------------------|
E|-----------------|-----------------|-----------------|-------------------|

  A      G          A      G          A      G           A     G
 "Hills are filled with fire"
e|-----------------|-----------------|-----------------|-------------------|
B|-----2-0---------|-----2-0---------|-----2-0---------|-----2-0-----------|
G|---2-----0---0---|---2-----0---0---|---2-----0---0---|---2-----0---0-----|
D|-2---------0-----|-2---------0-----|-2---------0-----|-2---------0-------|
A|-----------------|-----------------|-----------------|-------------------|
E|-----------------|-----------------|-----------------|-------------------|

  A     G            A     G           A     G          A      G
 "If they say I never loved you"
e|-----------------|-----------------|-----------------|-------------------|
B|-----2-0---------|-----2-0---------|-----2-0---------|-----2-0-----------|
G|---2-----0---0---|---2-----0---0---|---2-----0---0---|---2-----0---0-----|
D|-2---------0-----|-2---------0-----|-2---------0-----|-2---------0-------|
A|-----------------|-----------------|-----------------|-------------------|
E|-----------------|-----------------|-----------------|-------------------|

  A      G           A     G           A     G          A      G
 "You know they are a liar"
e|-----------------|-----------------|-----------------|-------------------|
B|-----2-0---------|-----2-0---------|-----2-0---------|-----2-0-----------|
G|---2-----0---0---|---2-----0---0---|---2-----0---0---|---2-----0---0-----|
D|-2---------0-----|-2---------0-----|-2---------0-----|-2---------0-------|
A|-----------------|-----------------|-----------------|-------------------|
E|-----------------|-----------------|-----------------|-------------------|

   A                A
"Drivin' down your freeways"
e|-----------------|-----------------|
B|-2-2-2--2--2-2---|-2-2-2--2--2-2---|
G|-2-2-2--2--2-2---|-2-2-2--2--2-2---|
D|-2-2-2--2--2-2---|-2-2-2--2--2-2---|
A|-----------------|-----------------|
E|-----------------|-----------------|

   A             A
"Midnite alleys roam"
e|-----------------|-----------------|
B|-2-2-2--2--2-2---|-2-2-2--2--2-2---|
G|-2-2-2--2--2-2---|-2-2-2--2--2-2---|
D|-2-2-2--2--2-2---|-2-2-2--2--2-2---|
A|-----------------|-----------------|
E|-----------------|-----------------|

    A                   A
 "Cops in cars, the topless bars"
e|-----------------|-----------------|
B|-2-2-2--2--2-2---|-2-2-2--2--2-2---|
G|-2-2-2--2--2-2---|-2-2-2--2--2-2---|
D|-2-2-2--2--2-2---|-2-2-2--2--2-2---|
A|-----------------|-----------------|
E|-----------------|-----------------|

   A            A   
 "Never saw a woman"
e|-----------------|-----------------|
B|-2-2-2--2--2-2---|-2-2-2--2----2-2-|
G|-2-2-2--2--2-2---|-2-2-2--2----2-2-|
D|-2-2-2--2--2-2---|-2-2-2--2----2-2-|
A|-----------------|-----------------|
E|-----------------|-----------------|


     G                  A
 "So alone"         "so alone,yeah"
e|---3-------------|----5------------|
B|---3-------------|----5------------|
G|---4-------------|----6------------|
D|---5-------------|----7------------|
A|---5-------------|----7------------|
E|---3-------------|----5------------|

     G                  A
 "So alone"         "so alone"
e|---3-------------|----5------------|
B|---3-------------|----5------------|
G|---4-------------|----6------------|
D|---5-------------|----7------------|
A|---5-------------|----7------------|
E|---3-------------|----5------------|


"Motel Money Murder Madness"
e|---------------------|
B|-5~-5----------------|
G|------7-5------------|
D|----------7--5---5-7~|
A|---------------7-----|
E|---------------------|


"Let's change the mood from glad to sadness"
e|-----------------------------------|
B|-5~-8/10~-8-5----------------------|
G|-------------7-5-------------------|
D|-----------------7-5---------------|
A|---------------------7-5-----------|
E|-------------------------8-5-------|



now a slow part .. if you want you can play it with a "wah-wah" effect

e|-----------------|--------------------|-------------|-5\3---------------|
B|-----------------|-5-3----------------|-------------|-----5-3-----------|
G|-0-2-5-2~--------|-----5-2~--9^-9-7-5-|0-2-2~-------|---------5~--------|
D|-----------------|--------------------|-------------|-------------------|
A|-----------------|--------------------|-------------|-------------------|
E|-----------------|--------------------|-------------|-------------------|


e|-----------------|-----------------|-----------------|-------------------|
B|-3-5-3\1--3-1----|-1/3~------------|-5-3-------3/5---|-5\3-1---5---------|
G|--------------2~-|-----------------|-----5-2-5-----5~|-------2---5~------|
D|-----------------|-----------------|-----------------|-------------------|
A|-----------------|-----------------|-----------------|-------------------|
E|-----------------|-----------------|-----------------|-------------------|


Now comes the Mr. Mojo Risin' part..

  "Mr. Mo-jo Ris-in"                 "Mr. Mo-jo Ris-in"
e|-----------------|-----------------|-----------------|-------------------|
B|-----------------|-----------------|-----------------|-------------------|
G|-----2--2--5---2-|------2---5------|----2--2/--5---2-|-----9\5~----------|
D|-----------------|-----------------|-----------------|-------------------|
A|-----------------|-----------------|-----------------|-------------------|
E|-----------------|-----------------|-----------------|-------------------|

  "Mr. Mojo Risin                       "Mr. Mo-jo ris-in"
e|-----------------|--------------------|-----------------|----------------|
B|-----------------|--------------------|-----------------|----------------|
G|-5~--------------|-0-2-2~-/5-2-(0)-(2)|----2--2---5--2--|-0-2----2/5\2---|
D|-----------------|--------------------|-----------------|----------------|
A|-----------------|--------------------|-----------------|----------------|
E|-----------------|--------------------|-----------------|----------------|

 "Got to keep on ri-sin'"
e|-------------------------------3^--------------------|
B|---------------------------3-5---5-3~-3--------------|
G|-------2------2/5--2-----5--------------5------------|
D|-----------------------------------------------------|
A|-----------------------------------------------------|
E|-----------------------------------------------------|

 "Mr. Mojo Risin'"
e|-----------------------5~-5\0------|-------------------------------------|
B|-------------------3-5----------5--|-5-3---------------------------------|
G|5~---------------5-----------------|-----5-2---2--2-2~-------------------|
D|-----------------------------------|---------5--5------------------------|
A|-----------------------------------|-------------------------------------|
E|-----------------------------------|-------------------------------------|

 "Mojo Risin'"                    "gotta...     Mojo Risin'"
e|-----------------------------------|-------------------------------------|
B|----1---1-----3-5^-----------------|--------------3-----3---3---3-5---3-5|
G|-2~---2---2-2-----5-2-5-2----------|---------2-5----2-5---5---5-----5----|
D|--------------------------5-2------|-----2-5-----------------------------|
A|------------------------------5-3--|-3-5---------------------------------|
E|-----------------------------------|-------------------------------------|

  "Mr. Mojo Risin'"                 "gotta keep on risin'"
e|-----------------|---3-5---3-5---3-5---3----------------|
B|---3-5----3-5----|-5-----5-----5-----5---5---5~\1-5~\1--|
G|-5------5--------|--------------------------------------|
D|-----------------|--------------------------------------|
A|-----------------|--------------------------------------|
E|-----------------|--------------------------------------|

  "Risin', risin'"                "Gone ... risin', risin'"
e|-----------------------------------|-------------------------------------|
B|-(5~\1)--(5~\1)---5~\1---5~\1------|---(5~\1)------(5~\1)----5~\1---5~\1-|
G|-----------------------------------|-------------------------------------|
D|-----------------------------------|-------------------------------------|
A|-----------------------------------|-------------------------------------|
E|-----------------------------------|-------------------------------------|

  "I'm gone risin', risin'"
e|--------------------------------------------------|
B|---------(5~\1)---(5~\1)----------5~\1------5~\1--|
G|--------------------------------------------------|
D|--------------------------------------------------|
A|--------------------------------------------------|
E|--------------------------------------------------|

  "I gotta risin', risin'"
e|--------------------------------------------------|
B|----------(5~\1)--(5~\1)--------5~\1--------5~\1--|
G|--------------------------------------------------|
D|--------------------------------------------------|
A|--------------------------------------------------|
E|--------------------------------------------------|

  "Well, risin', risin'"
e|--------------------------------------------------|
B|--------(5~\1)--(5~\1)--------5~\1--------5~\1----|
G|--------------------------------------------------|
D|--------------------------------------------------|
A|--------------------------------------------------|
E|--------------------------------------------------|


"I gotta...."


[Solo 2]

  "..wooo, yeah,    risin'"
e|-----8-8/12-12-10----------10-12^--|12-12--10-------10-12-------------12-|
B|------------------13-10-13---------|----------13-10-------10-13-10-13----|
G|---5-------------------------------|-------------------------------------|
D|-----------------------------------|-------------------------------------|
A|-----------------------------------|-------------------------------------|
E|-----------------------------------|-------------------------------------|



e|-8/10-10-10-10-10-10-13/14-14-14-14-14-12-10--10-10-8--------------------|
B|------------------------------------------------------10-8\6---6---------|
G|-------------------------------------------------------------7----7------|
D|-------------------------------------------------------------------------|
A|-------------------------------------------------------------------------|
E|-------------------------------------------------------------------------|


e|-8/9-9-9-9\7-7-7\5-5\3-3-3-2/3-2-0---------3-2/3-3/2---------------------|
B|-------------------------------------2/3-2-------------------------------|
G|-------------------------------------------------------------------------|
D|-------------------------------------------------------------------------|
A|-------------------------------------------------------------------------|
E|-------------------------------------------------------------------------|


"Well, I just got into town about an hour ago"
e|----------------------------------|
B|-8-7-5-7--------------------------|
G|---------5~-----------------------|
D|------------7-5-------------------|
A|----------------7-6-5-------------|
E|----------------------------------|


"Took a look around, see which way the wind blow"
e|----------------------------------|
B|-8~-7-5-7-------------------------|
G|----------5~----------------------|
D|-------------7-5------------------|
A|-----------------7-6-5------------|
E|----------------------------------|



"With a little girl in a Hollywood bungalow"
e|-----------------------------------|
B|-8-7-5-----------------------------|
G|--------5~-------------------------|
D|-----------7-5---------------------|
A|----------------7-6-5--------------|
E|-----------------------------------|



"Are you a lucky little lady in The City of Light"
e|-----------------------------------|
B|-------------------5---------------|
G|-7-6-7-6-7-6-7-6-7-----------------|
D|-----------------------------------|
A|-----------------------------------|
E|-----------------------------------|


"Or just another lost angel"

            G                  A
 "City at night"    "City at night"
e|----------3------------------5-----|
B|----------3------------------5-----|
G|----------4------------------6-----|
D|----------5------------------7-----|
A|----------5------------------7-----|
E|----------3------------------5-----|

            G                  A
 "City at night"    "City at night"
e|----------3------------------5-----|
B|----------3------------------5-----|
G|----------4------------------6-----|
D|----------5------------------7-----|
A|----------5------------------7-----|
E|----------3------------------5-----|


[Solo 3]

e|-----------------------------------|-------------------------------------|
B|-----------------------------------|-------------------------------------|
G|-6~-6-6\4\2-2-------0-2-4-4/6-6-4--|-2---2-------------------------------|
D|--------------0-2-4----------------|---4---2--0-2-4/5\4/5-4--------------|
A|-----------------------------------|-------------------------------------|
E|-----------------------------------|-------------------------------------|

  "L.A. Woman  your my woman"  "your my woman..."
e|-----------------------------------|-------------------------------------|
B|-----------2-2-2-2-2-2-3-3-2--3----|----play-this-awhile-only-the-lyrics-|
G|-----------------------------------|----will-be-change-------------------|
D|-----------------------------------|-------------------------------------|
A|-----------------------------------|-------------------------------------|
E|-----------------------------------|-------------------------------------|

  
e|-----------------------------------|play this at the last time....
B|-----------------------------------|
G|-3-3-3-3-3-3-2-3-2-0-0--------end--|
D|-----------------------------------|
A|-----------------------------------|
E|-----------------------------------|


************************************

| (n)  Ghost note
| /    Slide up
| \    Slide down
| ~    Vibrato

************************************

            
            
Suggest correction
Creating personal tab
Creating personal tab
You can edit any tab online and save it as your Personal.

You can edit, replace or remove any tab part or add personal notes – all changes will be seen only by you.

Personal tabs can be accessed anytime from any device, even offline.
Learn more »
comments
print report bad tab
4 comments total. Showing first comments.
0 reply
NoSmokingArea 40 Feb 24, 2009 05:01 AM

e|-----------------------------------|
B|-3-3-3-3-3-3-2-3-2-0-0-------------|
G|------------------------------end--|
D|-----------------------------------|
A|-----------------------------------|
E|-----------------------------------|

now it's right

0 reply
BASSteve 1,495 Mar 27, 2009 06:27 PM

Alot of effort went into your tab. Very nice job.

+1 reply
NoSmokingArea 40 Mar 29, 2009 09:02 AM

thanks alot :)

guest
You may want to rate the tab now too:
select rating
Wanna post a correction for this tab? Suggest correction