Oops, an error
Loading. Please wait.
We have an official Love Me Two Times tab made by UG professional guitarists. Check out the tab »
×
10,623 views 6 this week
no commentswrite comment
1 2 3 4 5
3 more votes to show rating
add to favorites
×
Save as Personal and add changes to this tab that will be seen only by you. Learn more ›
×
You can save this tab as Personal to edit and correct it or add notes. All changes will be seen only by you. Learn more »
launch autoscroll
font size
0
reset
guitar tuner
backing track
0:00
0:00
edit
Autoscroll
slow
fast
+/-
esc
set tempo
stop
Author
Difficulty
Another classic by the Doors.

Tabbed by: BASSteve

Tuning: EADG

Time signature: 4/4

r = rest (listen for duration)
/ = slide (low to high)

*My tabs are meant to be read in conjunction with listening to the song.
In other words, there are no specific notations to account for note/rest
duration. However, you will find that I’ve made an attempt to 
strategically space the notes and rests within their respective measures 
in order to represent the appropriate durations.


  (Guitar Intro [4x])
G|--------------------------------|--------------------------------|
D|--------------------------------|--------------------------------|
A|r-------------------------------|r-----------------------7-r-7-r-|
E|--------------------------------|--------------------------------|

 
               [9x]               “Love   me   two   time,  girl.”
|9-r-9-r---------9-r-9-r---------|9-r-9-r---------9-r-9-r---------|
|--------------------------------|----------------------------7-r-|
|--------7-r-7-r---------7-r-7-r-|--------7-r-7-r-----------------|
|--------------------------------|------------------------5-r-----|



|--------------------------------|--------------------------------|
|----7-r-----7-r-----7-r-----7-r-|----7-r-----7-r-----7-r---------|
|--------------------------------|------------------------7-r-7-r-|
|5-r-----5-r-----5-r-----5-r-----|5-r-----5-r-----5-r-------------|



|9-r-9-r---------9-r-9-r---------|9-r-9-r---------9-r-9-r---------|
|--------------------------------|--------------------------------|
|--------7-r-7-r---------7-r-7-r-|--------7-r-7-r---------5-r-0-r-|
|--------------------------------|--------------------------------|


               [2x]
|--------------------------------|--------------------------------|
|--------------------------------|--------------------------------|
|5-r-0-r-5-r-0-r-5-r-0-r-5-r-0-r-|5-r-0-r-5-r-0-r-5-r-0-r---------|
|--------------------------------|--------------------------------|


                          “Love    me    two    times,
|---------------------------------|-----------------------------------|
|---------------------------------|9---12-----------------------------|
|3-r-3-r-3-r-3-r-3/------10-------|------------------9---12-----------|
|---------------------------------|---------10----------------8-------|

 
  I’m     goin’     away.”                       [8x]
|---------------------------------|9-r-9-r---------9-r-9-r---------|
|---------------------------------|--------------------------------|
|7---10-----------6-------7-r-7-r-|--------7-r-7-r---------7-r-7-r-|
|---------7-----------------------|--------------------------------|


 “Love   me   one   time........”
|9-r-9-r---------9-r-9-r---------|--------------------------------|
|----------------------------7-r-|----7-r-----7-r-----7-r-----7-r-|
|--------7-r-7-r-----------------|--------------------------------|
|------------------------5-r-----|5-r-----5-r-----5-r-----5-r-----|



|--------------------------------|9-r-9-r---------9-r-9-r---------|
|----7-r-----7-r-----7-r---------|--------------------------------|
|------------------------7-r-7-r-|--------7-r-7-r---------7-r-7-r-|
|5-r-----5-r-----5-r-------------|--------------------------------|


                                                [2x]
|9-r-9-r---------9-r-9-r---------|--------------------------------|
|--------------------------------|--------------------------------|
|--------7-r-7-r---------5-r-0-r-|5-r-0-r-5-r-0-r-5-r-0-r-5-r-0-r-|
|--------------------------------|--------------------------------|



|--------------------------------|---------------------------------|
|--------------------------------|---------------------------------|
|5-r-0-r-5-r-0-r-5-r-0-r---------|3-r--3-r--3-r--3-r--3/--10-------|
|--------------------------------|---------------------------------|



|-----------------------------------|---------------------------------|
|9---12-----------------------------|---------------------------------|
|------------------9---12-----------|7---10-----------6-------r-------|
|---------10----------------8-------|---------7-----------------------|


 
|--------------------------------|---------------------------------|
|--------------------------------|---------------------------------|
|7-r--7-r--7-r--7-r--7-r--7-r--7-|r--7-r--7-r--7-r--7-r---10-------|
|--------------------------------|---------------------------------|



|-----------------------------------|---------------------------------|
|9---12-----------------------------|---------------------------------|
|------------------9---12-----------|7---10-----------6-------7---7---|
|---------10----------------8-------|---------7-----------------------|


                                                [4x]
|--------------------------------|9-r-9-r---------9-r-9-r---------|
|--------------------------------|--------------------------------|
|--------7---7-----------7-r-7-r-|--------7-r-7-r---------7-r-7-r-|
|0---0-----------0---0-----------|--------------------------------|


 (Harpsichord Solo)
|9-r-9-r---------9-r-9-r---------|--------------------------------|
|----------------------------7-r-|----7-r-----7-r-----7-r-----7-r-|
|--------7-r-7-r-----------------|--------------------------------|
|------------------------5-r-----|5-r-----5-r-----5-r-----5-r-----|



|--------------------------------|9-r-9-r---------9-r-9-r---------|
|----7-r-----7-r-----7-r---------|--------------------------------|
|------------------------7-r-7-r-|--------7-r-7-r---------7-r-7-r-|
|5-r-----5-r-----5-r-------------|--------------------------------|



|9-r-9-r---------9-r-9-r----------|-----------------------------------|
|---------------------------------|9---12-----------------------------|
|--------7-r-7-r---------10-------|------------------9---12-----------|
|---------------------------------|---------10----------------8-------|



|---------------------------------|--------------------------------|
|---------------------------------|--------------------------------|
|7---10-----------6-------r-------|7-r--7-r--7-r--7-r--7-r--7-r--7-|
|---------7-----------------------|--------------------------------|



|---------------------------------|-----------------------------------|
|---------------------------------|9---12-----------------------------|
|r--7-r--7-r--7-r--7-r---10-------|------------------9---12-----------|
|---------------------------------|---------10----------------8-------|


                                                 [8x]
|---------------------------------|9-r-9-r---------9-r-9-r---------|
|---------------------------------|--------------------------------|
|7---10-----------6-------7-r-7-r-|--------7-r-7-r---------7-r-7-r-|
|---------7-----------------------|--------------------------------|


 “Love   me   one   time,  ba______by ”
|9-r-9-r---------9-r-9-r---------|--------------------------------|
|----------------------------7-r-|----7-r-----7-r-----7-r-----7-r-|
|--------7-r-7-r-----------------|--------------------------------|
|------------------------5-r-----|5-r-----5-r-----5-r-----5-r-----|



|--------------------------------|9-r-9-r---------9-r-9-r---------|
|----7-r-----7-r-----7-r---------|--------------------------------|
|------------------------7-r-7-r-|--------7-r-7-r---------7-r-7-r-|
|5-r-----5-r-----5-r-------------|--------------------------------|


                                                [2x]
|9-r-9-r---------9-r-9-r---------|--------------------------------|
|--------------------------------|--------------------------------|
|--------7-r-7-r---------5-r-0-r-|5-r-0-r-5-r-0-r-5-r-0-r-5-r-0-r-|
|--------------------------------|--------------------------------|


                                                           “Love
|--------------------------------|---------------------------------|
|--------------------------------|---------------------------------|
|5-r-0-r-5-r-0-r-5-r-0-r---------|3-r--3-r--3-r--3-r--3/--10-------|
|--------------------------------|---------------------------------|


 me    two    times,                  I’m     goin’     a________way.”
|-----------------------------------|---------------------------------|
|9---12-----------------------------|---------------------------------|
|------------------9---12-----------|7---10-----------6-------r-------|
|---------10----------------8-------|---------7-----------------------|

                                                 

|----------------------------------|----------------------------------|
|----------------------------------|----------------------------------|
|7-r-7-10-r-10-r-7-r-7-5-r-5-r-7-r-|7-10-r-10-r-7-r-7-5-r-5-r-7-r-7-r-|
|----------------------------------|----------------------------------|


               [3x]               “Love   me   two   time,  babe.”
|9-r-9-r---------9-r-9-r---------|9-r-9-r---------9-r-9-r---------|
|--------------------------------|----------------------------7-r-|
|--------7-r-7-r---------7-r-7-r-|--------7-r-7-r-----------------|
|--------------------------------|------------------------5-r-----|



|--------------------------------|--------------------------------|
|----7-r-----7-r-----7-r-----7-r-|----7-r-----7-r-----7-r---------|
|--------------------------------|------------------------7-r-7-r-|
|5-r-----5-r-----5-r-----5-r-----|5-r-----5-r-----5-r-------------|



|9-r-9-r---------9-r-9-r---------|9-r-9-r---------9-r-9-r---------|
|--------------------------------|--------------------------------|
|--------7-r-7-r---------7-r-7-r-|--------7-r-7-r---------5-r-0-r-|
|--------------------------------|--------------------------------|


               [2x]
|--------------------------------|--------------------------------|
|--------------------------------|--------------------------------|
|5-r-0-r-5-r-0-r-5-r-0-r-5-r-0-r-|5-r-0-r-5-r-0-r-5-r-0-r---------|
|--------------------------------|--------------------------------|


                          “Love    me    two    times,
|---------------------------------|-----------------------------------|
|---------------------------------|9---12-----------------------------|
|3-r-3-r-3-r-3-r-3/------10-------|------------------9---12-----------|
|---------------------------------|---------10----------------8-------|


  I’m     goin’     away.”
|---------------------------------|--------------------------------|
|---------------------------------|--------------------------------|
|7---10-----------6-------r-------|7-r--7-r--7-r--7-r--7-r--7-r--7-|
|---------7-----------------------|--------------------------------|


                          “Love    me    two    times,
|---------------------------------|-----------------------------------|
|---------------------------------|9---12-----------------------------|
|r--7-r--7-r--7-r--7-r---10-------|------------------9---12-----------|
|---------------------------------|---------10----------------8-------|


  I’m     goin’     away.”
|---------------------------------|--------------------------------|
|---------------------------------|--------------------------------|
|7---10-----------6-------r-------|7-r--7-r--7-r--7-r--7-r--7-r--7-|
|---------7-----------------------|--------------------------------|


                          “Love    me    two    times,
|---------------------------------|-----------------------------------|
|---------------------------------|9---12-----------------------------|
|r--7-r--7-r--7-r--7-r---10-------|------------------9---12-----------|
|---------------------------------|---------10----------------8-------|


  I’m     goin’     a__wa__________y.”
|---------------------------------|--------------------------------|
|---------------------------------|--------------------------------|
|7---10-----------6-------r-------|7-r--7-r--7-r--7-r--7-r--7-r----|
|---------7-----------------------|--------------------------------|

              (PLEASE RATE THIS TAB / LEAVE COMMENT)                   

            
            
Suggest correction
Creating personal tab
Creating personal tab
You can edit any tab online and save it as your Personal.

You can edit, replace or remove any tab part or add personal notes – all changes will be seen only by you.

Personal tabs can be accessed anytime from any device, even offline.
Learn more »
Give kudos to tab author, rate the tab!
1 2 3 4 5
comments
print report bad tab
guest
You may want to rate the tab now too:
select rating
Wanna post a correction for this tab? Suggest correction