Oops, an error
Loading. Please wait.
We have an official Love Me Two Times tab made by UG professional guitarists. Check out the tab »
×
6,604 views 6 this week
1 commentread comment
1 2 3 4 5
1 last vote to show rating
add to favorites
×
Save as Personal and add changes to this tab that will be seen only by you. Learn more ›
×
You can save this tab as Personal to edit and correct it or add notes. All changes will be seen only by you. Learn more »
launch autoscroll
font size
0
reset
guitar tuner
backing track
0:00
0:00
edit
Autoscroll
slow
fast
+/-
esc
set tempo
stop
Author
Love Me Two Times - The Doors

Tabbed By: born21239
e-mail: bass21239@gmail.com

The bass on this song is played by frequent Doors session
bassist Doug Lubahn on an electric bass guitar.

Tuning: EADG

0:06 (repeat at 0:14)
G|-----9-9-----9-9-|-----9-9-----9-9-|-----9-9-----9-9-|-----9-9-----9-9-|
D|-----------------|-----------------|-----------------|-----------------|
A|-7-7-----7-7-----|-7-7-----7-7-----|-7-7-----7-7-----|-7-7-----7-7-----|
E|-----------------|-----------------|-----------------|-----------------|

0:21
G|-----9-9-----9-9-|-----9-9-----9---|-----------------|-----------------|
D|-----------------|-----------------|-----7-7-----7-7-|-----7-7-----7-7-|
A|-7-7-----7-7-----|-7-7-----7-7-----|-----------------|-----------------|
E|-----------------|---------------0-|-5-5-----5-5-----|-5-5-----5-5-----|

0:28
G|-----9-9-----9-9-|-----9-9-----9---|-----------------|-----------------|
D|-----------------|-----------------|-----------------|-----------------|
A|-7-7-----7-7-----|-7-7-----7-7---0-|-5-0-5-0-5-0-5-0-|-5-0-5-0-5-0-5-0-|
E|-----------------|-----------------|-----------------|-----------------|

0:35                 (triplets)
G|----------------|-------------|--------------------|---------------|
D|----------------|-------------|------9-12----------|---------------|
A|-5-0-5-0-5-0-5--|--3-3-3-3-3/-|-/10-----------9-12-|----7-10----5--|
E|----------------|-------------|-----------10-------|-8-------6-----|

0:42 (repeat at 0:50)
G|-----9-9-----9-9-|-----9-9-----9-9-|-----9-9-----9-9-|-----9-9-----9-9-|
D|-----------------|-----------------|-----------------|-----------------|
A|-7-7-----7-7-----|-7-7-----7-7-----|-7-7-----7-7-----|-7-7-----7-7-----|
E|-----------------|-----------------|-----------------|-----------------|

0:57
G|-----9-9-----9---|-----------------|-----------------|-----9-9-----9-9-|
D|---------------0-|-----7-7-----7-7-|-----7-7-----7-7-|-----------------|
A|-7-7-----7-7-----|-----------------|-----------------|-7-7-----7-7-----|
E|-----------------|-5-5-----5-5-----|-5-5-----5-5-----|-----------------|

1:04
G|-----9-9-----9---|-----------------|-----------------|---------------|
D|-----------------|-----------------|-----------------|---------------|
A|-7-7-----7-7---0-|-5-0-5-0-5-0-5-0-|-5-0-5-0-5-0-5-0-|-505050505000--|
E|-----------------|-----------------|-----------------|---------------|

1:10 (triplets)                                       (triplets)
G|-------------|--------------------|---------------|------------|
D|-------------|------9-12----------|---------------|------------|
A|--3-3-3-3-3/-|-/10-----------9-12-|----7-10----5--|--7-7-7-7-7-|
E|-------------|-----------10-------|-8-------6-----|------------|

1:19 (triplets)
G|--------------|--------------------|----------------|------------------|
D|--------------|------9-12----------|----------------|------------------|
A|-7-7-7-7-7-7/-|-/10-----------9-12-|----7-10----5-8-|-----7-7------7-7-|
E|--------------|-----------10-------|-8-------6------|-0-0------0-0-----|

1:26
G|-----9-9-----9-9-|-----9-9-----9-9-|-----9-9-----9-9-|-----9-9-----9-9-|
D|-----------------|-----------------|-----------------|-----------------|
A|-7-7-----7-7-----|-7-7-----7-7-----|-7-7-----7-7-----|-7-7-----7-7-----|
E|-----------------|-----------------|-----------------|-----------------|

1:33
G|-----9-9-----9---|-----------------|-----------------|-----9-9-----9-9-|
D|-----------------|-----7-7-----7-7-|-----7-7-----7-7-|-----------------|
A|-7-7-----7-7---5-|-----------------|-----------------|-7-7-----7-7-----|
E|-----------------|-5-5-----5-5-----|-5-5-----5-5-----|-----------------|

1:40                                                      (triplets)
G|-----9-9-----9---|--------------------|---------------|------------|
D|-----------------|------9-12----------|---------------|------------|
A|-7-7-----7-7---7-|-/10-----------9-12-|----7-10----5--|--7-7-7-7-7-|
E|-----------------|-----------10-------|-8-------6-----|------------|

1:48 (triplets)
G|--------------|--------------------|----------------|-----9-9-----9-9-|
D|--------------|------9-12----------|----------------|-----------------|
A|-7-7-7-7-7-7/-|-/10-----------9-12-|----7-10----5/--|-7-7-----7-7-----|
E|--------------|-----------10-------|-8-------6------|-----------------|

1:55
G|-----9------9-9-|-----9-9-----9-9-|-----9-9-----9-9-|-----9-9-----9-9-|
D|----------------|-----------------|-----------------|-----------------|
A|-7-7----7-7-----|-7-7-----7-7-----|-7-7-----7-7-----|-7-7-----7-7-----|
E|----------------|-----------------|-----------------|-----------------|

2:02
G|-----9-9-----9-9-|-----9-9-----9-9-|-----9-9-----9-9-|-----9-9-----9---|
D|-----------------|-----------------|-----------------|-----------------|
A|-7-7-----7-7-----|-7-7-----7-7-----|-7-7-----7-7-----|-7-7-----7-7---7-|
E|-----------------|-----------------|-----------------|-----------------|

2:09
G|-----------------|-----------------|-----9-9-----9-9-|-----9-9-----9---|
D|-----7-7-----7-7-|-----7-7-----7-7-|-----------------|-----------------|
A|-----------------|-----------------|-7-7-----7-7-----|-7-7-----7-7---0-|
E|-5-5-----5-5-----|-5-5-----5-5-----|-----------------|-----------------|

2:16                                                   (triplets)
G|-----------------|----------------|----------------|-------------|
D|-----------------|----------------|----------------|-------------|
A|-5-0-5-0-5-0-5-0-|-5-0-5-0-505050-|-5-0-5-0-5-0-5--|--3-3-3-3-3/-|
E|-----------------|----------------|----------------|-------------|

2:24
G|--------------------|---------------|-------------|-------------|
D|------9-12----------|---------------|-------------|-------------|
A|-/10-----------9-12-|----7-10----5--|-7--77-77-77-|-77-77-77-77-|
E|-----------10-------|-8-------6-----|-------------|-------------|

2:31
G|------9-9-----9-9-|-----9-9-----9-9-|-----9-9-----9-9-|-----9-9-----9---|
D|------------------|-----------------|-----------------|-----------------|
A|-77-7-----7-7-----|-7-7-----7-7-----|-7-7-----7-7-----|-7-7-----7-7---7-|
E|------------------|-----------------|-----------------|-----------------|

2:38
G|-----------------|-----------------|-----9-9-----9-9-|-----9-9----9---|
D|-----7-7-----7-7-|-----7-7-----7-7-|-----------------|-------------70-|
A|-----------------|-----------------|-7-7-----7-7-----|-7-7-----7-7----|
E|-5-5-----5-5-----|-5-5-----5-5-----|-----------------|----------------|

2:45                                                      (triplets)
G|-----------------|-----------------|-----------------|-------------|
D|-----------------|-----------------|-----------------|-------------|
A|-5-0-5-0-5-0-5-0-|-5-0-5-0-5-0-5-0-|-5-0-5-0-5-0-5-0-|--3-3-3-3-3/-|
E|-----------------|-----------------|-----------------|-------------|

2:53 (repeat at 3:00)                   (triplets)    (triplets)
G|--------------------|---------------|------------|--------------|
D|------9-12----------|---------------|------------|--------------|
A|-/10-----------9-12-|----7-10----5--|--7-7-7-7-7-|-7-7-7-7-7-7/-|
E|-----------10-------|-8-------6-----|------------|--------------|

3:07                                    (triplets)
G|--------------------|---------------|------------|---|
D|------9-12----------|---------------|------------|---|
A|-/10-----------9-12-|----7-10----5--|--7-7-7-7-7-|-7-|
E|-----------10-------|-8-------6-----|------------|---|

            
            
Suggest correction
Creating personal tab
Creating personal tab
You can edit any tab online and save it as your Personal.

You can edit, replace or remove any tab part or add personal notes – all changes will be seen only by you.

Personal tabs can be accessed anytime from any device, even offline.
Learn more »
Give kudos to tab author, rate the tab!
1 2 3 4 5
comments
print report bad tab
1 comment total.
+1 reply
Justabitcrazy 72 Aug 16, 2010 11:47 PM

At the end of these sequences throughout the song your last three notes are on the 6,5, and 8, like this:
G|--------------------|----------------|
D|------9-12----------|----------------|
A|-/10-----------9-12-|----7-10----5-8-|
E|-----------10-------|-8-------6------|

But they should be a semitone up- therefore on the 7th,6th,and 9th frets, like this:
G|--------------------|----------------|
D|------9-12----------|----------------|
A|-/10-----------9-12-|----7-10----6-9-|
E|-----------10-------|-8-------7------|

guest
You may want to rate the tab now too:
select rating
Wanna post a correction for this tab? Suggest correction