Oops, an error
Loading. Please wait.
We have an official Love Me Two Times tab made by UG professional guitarists. Check out the tab »
×
20,737 views 9 this week
1 commentread comment
1 2 3 4 5
x 6
add to favorites
×
Save as Personal and add changes to this tab that will be seen only by you. Learn more ›
×
You can save this tab as Personal to edit and correct it or add notes. All changes will be seen only by you. Learn more »
launch autoscroll
font size
0
reset
how to read this tab
guitar tuner
backing track
0:00
0:00
edit
Autoscroll
slow
fast
+/-
esc
set tempo
stop
Author
Difficulty
Okay this song is not very hard to play.I'm pretty sure it's correct and if you find a 
player as good as Ray Manzarek you'll have a lot of fun being The Doors...Here it is.


Legend :  h ---> Hammer on
          p ---> Pull off
          b ---> Bend (in this song it's an half bend)
          ~ ---> Let Ring
VERSE :
e --------------------------------------------------|
B --------------------------------------------------|
G --------------------0h1p0h1p0h1-------0h1p0h1p0h1-|     X 6
D ---0---2---0-2------------------------------------|
A -2---2---2----------------------------------------|
E ----------------0-0--------------0-0--------------|

e ------------------------5-------3b----------------|
B ----------------------------2---------------------|
G -----------------2--------------------------------|
D ---0---2---0-2---0--------------------------------|
A -2---2---2----------------------------------------|
E --------------------------------------------------|

e --------------------------------------------------|
B --------------------------------------------------|
G --------------------0h1p0h1p0h1-------0h1p0h1p0h1-|
D ---0---2---0-2------------------------------------|
A -2---2---2----------------------------------------|
E ----------------0-0--------------0-0--------------|

e -----------------2--------------------------------------------------------------------------------|
B -----------------1-- For this make random picking a can't figure out was are the exact notes D#7--|
G -----------------2--------------------------------------------------------------------------------|
D ---0---2---0-2------------------------------------------------------------------------------------|
A -2---2---2----------------------------------------------------------------------------------------|
E --------------------------------------------------------------------------------------------------|

CHORUS 1 :
e ---------------3-3---2-2---------2-2--------------|
B -1-1-1-1-1-----3-3---3-3---1-1--------------------|
G -2-2-2-2-2-----------2-2---2-2---2-2--------------|
D -3-3-3-3-3-----------------3-3---1-1--------2-2---|
A -3-3-3-3-3-----2-2---------3-3---2-2--------------|
E ---------------3-3----------------------0-0-------|

VERSE 2 :
e --------------------------------------------------|
B ---------------------0h1p0h1p0h1p0h1p0h1--0h1p0h1-|
G --------------------------------------------------|    X 4
D ---0---2---0-2------------------------------------|
A -2---2---2----------------------------------------|
E ---------------0-0--------------------------------|

e ------------------------5-------3b----------------|
B ----------------------------2---------------------|
G -----------------2--------------------------------|
D ---0---2---0-2---0--------------------------------|
A -2---2---2----------------------------------------|
E --------------------------------------------------|

e --------------------------------------------------|
B ---------------------0h1p0h1p0h1p0h1p0h1--0h1p0h1-|
G --------------------------------------------------|
D ---0---2---0-2------------------------------------|
A -2---2---2----------------------------------------|
E ---------------0-0--------------------------------|

e -----------------2---------------------------------------------------------------------------------|
B -----------------1-- For this make random picking a can't figure out what are the exact notes D#7--|
G -----------------2---------------------------------------------------------------------------------|
D ---0---2---0-2-------------------------------------------------------------------------------------|
A -2---2---2-----------------------------------------------------------------------------------------|
E ---------------------------------------------------------------------------------------------------|

CHORUS 2 :
                                             |-------> X11-|
e ---------------3-3---2-2---------2-2-------5-------------|
B -1-1-1-1-1-----3-3---3-3---1-1-------------5-------------|
G -2-2-2-2-2-----------2-2---2-2---2-2---------------------|
D -3-3-3-3-3-----------------3-3---1-1---------------------|
A -3-3-3-3-3-----2-2---------3-3---2-2---------------------|
E ---------------3-3----------------------0~~~~------------|

CHORUS 1

DURING PIANO SOLO :
e --------------------------------------------------|
B --------------------------------------------------|
G --------------------------------------------------|   X 4
D ---0---2---0-2------2-2-----2-2-------------------|
A -2---2---2----------------------------------------|
E ----------------0-0-----0-0-----------------------|

e ------------------------5-------3b------3---5-----|
B ----------------------------2-------2-------------|
G -----------------2--------------------------------|
D ---0---2---0-2---0--------------------------------|
A -2---2---2----------------------------------------|
E --------------------------------------------------|

e --------------------------------------------------|
B --------------------------------------------------|
G --------------------------------------------------|
D -----2-2-----2-2------0---2---0-2-----------------|
A --------------------2---2---2---------------------|
E 0-0-----0-0---------------------------------------|

CHORUS 2
CHORUS 1

VERSE  2

CHORUS 1

After that Jim Morisson start signin hard...i didn't get this part good so you can play a normal VERSE 1
and it's sounds very good


ENDING :

CHORUS 2   X 2
CHORUS 2  (Instead of playing the end of it 11 times..it's only 6 times)

            
            
Suggest correction
Creating personal tab
Creating personal tab
You can edit any tab online and save it as your Personal.

You can edit, replace or remove any tab part or add personal notes – all changes will be seen only by you.

Personal tabs can be accessed anytime from any device, even offline.
Learn more »
comments
print report bad tab
1 comment total.
0 reply
dwaasheid 10 Apr 28, 2006 09:16 AM

the tabs are wrong

guest
You may want to rate the tab now too:
select rating
Wanna post a correction for this tab? Suggest correction