Oops, an error
Loading. Please wait.

Maggie Mgill bass

version 1
version 1

Whole song

Interactive

4,746 views 9 this week
no commentswrite comment
1 2 3 4 5
x 3
add to favorites
×
Save as Personal and add changes to this tab that will be seen only by you. Learn more ›
×
You can save this tab as Personal to edit and correct it or add notes. All changes will be seen only by you. Learn more »
launch autoscroll
font size
0
reset
guitar tuner
edit
Autoscroll
slow
fast
+/-
esc
set tempo
stop
Author
Maggie M'Gill - The Doors

Tabbed By: born21239
e-mail: bass21239@gmail.com

The bass on this song is played by noted guitarist Lonnie Mack,
who played bass on two songs on the Morrison Hotel album, with
the other being Roadhouse Blues.

Tuning: EADG

0:02
G|-------|-----------------|-----------------|-----------------|-----------------|
D|-------|-----------------|-----------------|-----------------|-----------------|
A|-------|-----3-3-----3---|-----3-3-----3---|-----3-3-----3---|-----3-3-----3---|
E|-0-3-4-|-5-5-----5-5--53-|-5-5-----5-5--53-|-5-5-----5-5--53-|-5-5-----5-5--53-|

0:13
G|-----------------|-----------------|-----------------|-----------------|
D|-----------------|-----------------|-----------------|-----------------|
A|-----3-3-----3---|-----3-3-----3---|-----3-3-----3---|-----3-3-----3---|
E|-5-5-----5-5--53-|-5-5-----5-5--53-|-5-5-----5-5--53-|-5-5-----5-5--53-|

0:24
G|-----------------|-----------------|-----------------|-----------------|
D|-----------------|-----------------|-----------------|-----------------|
A|-----3-3-----3---|-----3-3-----3---|-----3-3-----3---|-----3-3-----3---|
E|-5-5-----5-5--53-|-5-5-----5-5--53-|-5-5-----5-5--53-|-5-5-----5-5--53-|

0:34
G|-----------------|-------------------|-----------------|-----------------|
D|-----------------|-------------------|-----------------|-----------------|
A|-5-5-5-5-5-5-5-3-|-5-5-5-5-5-5-5/6-7-|-----3-3-----3---|-----3-3-----3---|
E|-----------------|-------------------|-5-5-----5-5--53-|-5-5-----5-5--53-|

0:45
G|-----------------|---------75------|-----------------|-----------------|
D|-----------------|------------7-5--|-----------------|-----------------|
A|-3-3-3-3-3-3-3-4-|-5-5-5-5-------7-|-----3-3-----3---|-----3-3-----3---|
E|-----------------|-----------------|-5-5-----5-5--53-|-5-5-----5-5--53-|

0:55
G|-----------------|-----------------|-----------------|-----------------|
D|-----------------|-----------------|-----------------|-----------------|
A|-----3-3-5-5-3---|-----3-3-5-5-3---|-----3-3-5-5-3---|-----3-3-5-5-3---|
E|-5-5----------53-|-5-5----------53-|-5-5----------53-|-5-5----------53-|

1:05
G|-----7-7-5-5-------|-----7-7-5-5------|-----------------|-----------------|
D|-------------75----|-------------75---|-----------------|-----------------|
A|-5-5------------3/-|-5-5------------3-|-----3-3-5-5-3---|-----3-3-5-5-3---|
E|-------------------|------------------|-5-5----------53-|-5-5----------53-|

1:16
G|---------53------|---------75------|-----------------|-----------------|
D|------------5-3--|------------7-5--|-----------------|-----------------|
A|-3-3-3-3-------3-|-5-5-5-5-------5-|-----3-3-5-5-3---|-----3-3-5-5-3---|
E|-----------------|-----------------|-5-5----------53-|-5-5----------53-|

1:26
G|-----------------|-----------------|-----------------|-----------------|
D|-----------------|-----------------|-----------------|-----------------|
A|-----3-3-5-5-3---|-----3-3-5-5-3---|-----3-3-5-5-3---|-----3-3-5-5-3---|
E|-5-5----------53-|-5-5----------53-|-5-5----------53-|-5-5----------53-|

1:37
G|-----7-7-5-5-------|-----7-7-5-5------|-----------------|-----------------|
D|-------------75----|-------------75---|-----------------|-----------------|
A|-5-5------------3/-|-5-5------------3-|-----3-3-5-5-3---|-----3-3-5-5-3---|
E|-------------------|------------------|-5-5----------53-|-5-5----------53-|

1:47
G|---------53------|---------75------|-----------------|-----------------|
D|------------5-3--|------------7-5--|-----------------|-----------------|
A|-3-3-3-3-------3-|-5-5-5-5-------0-|-----3-3-----3---|-----------------|
E|-----------------|-----------------|-5-5-----5-5--53-|-5---------------|

1:57
G|-----------------|-----------------|-----------------|-----------------|
D|-----------------|-----------------|-----------------|-----------------|
A|-----------------|-----------------|-----------------|-----3-3-----3---|
E|-----------------|-----------------|-----------0-3-4-|-5-5-----5-5--53-|

2:07 (repeat to fade out)
G|-----------------|
D|-----------------|
A|-----3-3-----3---|
E|-5-5-----5-5--53-|

            
            
Suggest correction
Creating personal tab
Creating personal tab
You can edit any tab online and save it as your Personal.

You can edit, replace or remove any tab part or add personal notes – all changes will be seen only by you.

Personal tabs can be accessed anytime from any device, even offline.
Learn more »
Give kudos to tab author, rate the tab!
1 2 3 4 5
comments
print report bad tab
guest
You may want to rate the tab now too:
select rating
Wanna post a correction for this tab? Suggest correction