Oops, an error
Loading. Please wait.
We have an official Riders On The Storm tab made by UG professional guitarists. Check out the tab »
×
40,166 views 39 this week
3 commentsread comments
1 2 3 4 5
x 16
add to favorites
×
Save as Personal and add changes to this tab that will be seen only by you. Learn more ›
×
You can save this tab as Personal to edit and correct it or add notes. All changes will be seen only by you. Learn more »
launch autoscroll
font size
0
reset
guitar tuner
backing track
0:00
0:00
edit
Autoscroll
slow
fast
+/-
esc
set tempo
stop
Author
Unregistered
Riders On the Storm - Doors
                       
 main riff    
G|------------------------------------------------------------------|
D|-2----------------------------------------------------------------|
A|---2---2---0-4-0---2---2---0-4-0---2---2---0-4-0---2---2---0-4-0--|
E|-----3---0-------0---3---0-------0---3---0-------0---3---0--------|

"into this house.."
G|---------------------------------------------------------------------------------------------------|
D|---------7-7---------------/9-7-------2------------------------------------------------------------|
A|--0-0-------------\0-0----------7---5---2---2---0-4-0---2---2---0-4-0-5-------5-3-------3-3-2-2/5--|
E|----------------------------------7-------3---0-------0---3---0------------------------------------|


Don't trust anyone named TP
tabbed by Achilles (blue_sincere@hotmail.com)
 

            
            
Suggest correction
Creating personal tab
Creating personal tab
You can edit any tab online and save it as your Personal.

You can edit, replace or remove any tab part or add personal notes – all changes will be seen only by you.

Personal tabs can be accessed anytime from any device, even offline.
Learn more »
comments
print report bad tab
3 comments total.
+4 reply
mrlespaul24 10 Jul 07, 2010 06:04 PM

its complicated you should have spaced out the numbers more

+1 reply
AGOM123 30 Jul 18, 2011 12:38 AM

I agree with mrlespaul24. The tab overall is good, but it's not spaced out good.

+4 reply
Metal Head420 65 May 06, 2013 05:51 AM

I agree with AGOM123, the spacing on this is about as well as his grammar

guest
Wanna post a correction for this tab? Suggest correction