Oops, an error
Loading. Please wait.

Shamans Blues bass

version 2
version 2

Whole song

1,989 views 1 this week
no commentswrite comment
1 2 3 4 5
3 more votes to show rating
add to favorites
×
Save as Personal and add changes to this tab that will be seen only by you. Learn more ›
×
You can save this tab as Personal to edit and correct it or add notes. All changes will be seen only by you. Learn more »
launch autoscroll
font size
0
reset
guitar tuner
edit
Autoscroll
slow
fast
+/-
esc
set tempo
stop
This is my first tab so bare with me...it's got such a catchy bass line and I have never 
able to find a tab for it so here's what I've figured out on my own.


G|------------------------|
D|-----5-3--------------:-|
A|---------5-0-3--------:-|
E|-3-------------1-2------|
this is the main riff when he's playing fast

G|-------------------------|
D|-----5-3---------------:-|
A|---------5--3----------:-|
E|-3-------------1-2-------|
play this when it's slowed down

G|-----7-5----------------|
D|---------7-0-5--------:-|
A|-5--------------3-4---:-|
E|------------------------|
then it goes into C so play something similar but in C he plays this twice

This is my first tab so bare with me...it's got such a catchy bass line and I have never 
able to find a tab for it so here's what I've figured out on my own.

Most of the song is in G

G|------------------------|
D|-----5-3--------------:-|
A|---------5-0-3--------:-|
E|-3-------------1-2------|
this is the main riff when he's playing fast

G|-------------------------|
D|-----5-3---------------:-|
A|---------5--3----------:-|
E|-3-------------1-2-------|
play this when it's slowed down

G|-----7-5----------------|
D|---------7-0-5--------:-|
A|-5--------------3-4---:-|
E|------------------------|
then it goes into C so play something similar but in C he plays this twice

Well that's the best I can do just winging it, just play around with it, hopefully this 
inspire someone to get the tab perfect cause it's a lot of fun to play

            
            
Suggest correction
Creating personal tab
Creating personal tab
You can edit any tab online and save it as your Personal.

You can edit, replace or remove any tab part or add personal notes – all changes will be seen only by you.

Personal tabs can be accessed anytime from any device, even offline.
Learn more »
Give kudos to tab author, rate the tab!
1 2 3 4 5
comments
print report bad tab
guest
Wanna post a correction for this tab? Suggest correction