Oops, an error
Loading. Please wait.

The End bass

version 2
version 2

Whole song

Interactive

8,608 views 3 this week
2 commentsread comments
1 2 3 4 5
1 last vote to show rating
add to favorites
×
Save as Personal and add changes to this tab that will be seen only by you. Learn more ›
×
You can save this tab as Personal to edit and correct it or add notes. All changes will be seen only by you. Learn more »
launch autoscroll
font size
0
reset
guitar tuner
backing track
0:00
0:00
edit
Autoscroll
slow
fast
+/-
esc
set tempo
stop
Author
The End - The Doors

Tabbed By: born21239
e-mail: bass21239@gmail.com

The bass on this song is played by Ray Manzarek on a Fender
Rhodes Piano Bass, not a bass guitar. Play it with your
fingers and listen to the recording to pick up on the exact
timbre of the notes. You can transpose the strings however
you like, as the bassline is not originally written for the
bass guitar. This is just the way I prefer to play it and
think sounds best. This is the whole song from beginning to
end, at least 99% accurate.

Though quite a long song, the bassline is not terribly difficult.
The only real challenge is the shifting time signature. The song
is in 4/4, except for some measures in 3/2, which are denoted by
a (3/2) below them.

To be clear, this song does not consist only of single notes, 
there are chords. When chords are played on the Fender Rhodes
Piano Bass, the effect is to make them sound like overdriven
single notes. This tab represents a reasonable approximation
of which notes were emphasized in this manner. If you don't
care to play them, then just play their roots and it will sound
just fine. However, I'd advise playing the last measures just
as they are transcribed, or the ending just won't sound right.
Apart from that, it's easy to extract the basic riffs and just
improvise on them.

Tuning: EADG

0:37
G|-------7----7-|-------7----7-|-------7----7-|-------7----7-|
D|-----7----7---|-----7----7---|-----7----7---|-----7----7---|
A|-5------------|-5------------|-5------------|-5------------|
E|--------------|--------------|--------------|--------------|

0:46
G|-------7----7-|-------7----7-|-------7----7-|-------7----7-|
D|-----7----7---|-----7----7---|-----7----7---|-----7----7---|
A|-5------------|-5------------|-5------------|-5------------|
E|--------------|--------------|--------------|--------------|

0:55
G|-------7----7-|-------5----5-|-------7----7-|-------7----7-|
D|-----7----7---|-5---5----5---|-7---7----7---|-----7----7---|
A|-5------------|-3------------|-5------------|-5------------|
E|--------------|--------------|--------------|--------------|

1:05
G|-------7----7-|-------5----5-|-------7----7------7-|------5----4-7-|
D|-----7----7---|-5---5----5---|-7---7----7------7---|-5--5---5------|
A|-5------------|-3------------|-5------------5------|-3-------------|
E|--------------|--------------|---------------------|---------------|
				        (3/2)

1:15
G|-------7----7------7-|------5----4-7-|-------7----7------7-|------5----4-7-|
D|-----7----7------7---|-5--5---5------|-----7----7------7---|-5--5---5------|
A|-5------------5------|-3-------------|-5------------5------|-3-------------|
E|---------------------|---------------|---------------------|---------------|
          (3/2)                                 (3/2)

1:27
G|-------7----7------7-|------5-----5----5-|-------7----7-|-------7----7-|
D|-----7----7------7---|-5-------5-----5---|-7---7----7---|-----7----7---|
A|-5------------5------|-3-----------------|-5------------|-5------------|
E|---------------------|-------------------|--------------|--------------|
          (3/2)                (3/2)

1:39
G|-------7----7-|-------7----7-|-------5----5-|-------7----7-|
D|-----7----7---|-----7----7---|-5---5----5---|-7---7----7---|
A|-5------------|-5------------|-3------------|-5------------|
E|--------------|--------------|--------------|--------------|

1:48
G|-----4-7---4-7-|-------7----7-|-------5----5-|-------7----7-|
D|-5-------5-----|-7---7----7---|-5---5----5---|-7---7----7---|
A|---------------|-5------------|-3------------|-5------------|
E|---------------|--------------|--------------|--------------|

1:58
G|-7---4-7---4-7-|-------7----7-|-------5----5-|-------7----7-|
D|-5-------5-----|-7---7----7---|-5---5----5---|-7---7----7---|
A|---------------|-5------------|-3------------|-5------------|
E|---------------|--------------|--------------|--------------|

2:07
G|-------7----7-|-------7----7-|-------7----7-|-------7----7-|
D|-----7----7---|-----7----7---|-----7----7---|-7---7----7---|
A|-5------------|-5------------|-5------------|-5------------|
E|--------------|--------------|--------------|--------------|

2:16
G|-----7----7---|-----7----7---|-----7----7---|-----7----7---|
D|-------7----7-|-------7----7-|-------7----7-|-------7----7-|
A|-5------------|-5------------|-5------------|-5------------|
E|--------------|--------------|--------------|--------------|

2:25
G|-----7----7---|-----7----7---|-----7----7---|-----7----7---|
D|-------7----7-|-------7----7-|-------7----7-|-------7----7-|
A|-5------------|-5------------|-5------------|-5------------|
E|--------------|--------------|--------------|--------------|

2:34
G|-----7----7---|-----7----7---|-----7----7---|-----7----7---|
D|-------7----7-|-------7----7-|-------7----7-|-------7----7-|
A|-5------------|-5------------|-5------------|-5------------|
E|--------------|--------------|--------------|--------------|

2:42
G|-----7----7---|-----7----7--|-----7----7--|-----7----7---|
D|-------7----7-|-------7-----|-------7-----|-------7----7-|
A|-5------------|-5-----------|-5-----------|-5------------|
E|--------------|-------------|-------------|--------------|

2:52
G|-----7----7--|-----7----7--|-----7----7---|-----7----7---|
D|-------7-----|-------7-----|-------7----7-|-------7----7-|
A|-5-----------|-5-----------|-5------------|-5------------|
E|-------------|-------------|--------------|--------------|

3:01
G|-------7----7-|-------7----7-|-------7----7-|-------7----7-|
D|-----7----7---|-----7----7---|-----7----7---|-----7----7---|
A|-5------------|-5------------|-5------------|-5------------|
E|--------------|--------------|--------------|--------------|

3:10
G|-----7----7---|-------7----7-|-----7----7---|-------7----7-|
D|-------7----7-|-----7----7---|-------7----7-|-----7----7---|
A|-5------------|-5------------|-5------------|-5------------|
E|--------------|--------------|--------------|--------------|

3:19
G|-------7----7-|-------7----7-|-------7----7-|-----7----7---|
D|-----7----7---|-----7----7---|-----7----7---|-------7----7-|
A|-5------------|-5------------|-5------------|-5------------|
E|--------------|--------------|--------------|--------------|

3:28
G|-----7----7---|-------7----7-|-------7----7-|-----7----7---|
D|-------7----7-|-----7----7---|-----7----7---|-------7----7-|
A|-5------------|-5------------|-5------------|-5------------|
E|--------------|--------------|--------------|--------------|

3:36
G|-----7----7---|-----7----7---|-----7----7---|-----7----7---|
D|-------7----7-|-------7----7-|-------7----7-|-------7----7-|
A|-5------------|-5------------|-5------------|-5------------|
E|--------------|--------------|--------------|--------------|

3:45
G|-----7----7---|-----7----7---|----------7--|----------7--|
D|-------7----7-|-------7----7-|-----7-5-----|-----7-5-----|
A|-5------------|-5------------|-5-----------|-5-----------|
E|--------------|--------------|-------------|-------------|

3:54
G|-------7----7-|-------7----7-|-------7----7-|-----7----7---|
D|-----7----7---|-----7----7---|-----7----7---|-------7----7-|
A|-5------------|-5------------|-5------------|-5------------|
E|--------------|--------------|--------------|--------------|

4:03
G|-----7----7--|-----7----7---|-----7----7---|-----7----7--|
D|-------7-----|-------7----7-|-------7----7-|-------7-----|
A|-5-----------|-5------------|-5------------|-5-----------|
E|-------------|--------------|--------------|-------------|

4:12
G|-----7----7---|-----7----7---|-----7----7--|-----7----7---|
D|-------7----7-|-------7----7-|-------7-----|-------7----7-|
A|-5------------|-5------------|-5-----------|-5------------|
E|--------------|--------------|-------------|--------------|

4:21
G|-----7----7---|-----7----7---|-----7----7---|-----7----7---|
D|-------7----7-|-------7----7-|-------7----7-|-------7----7-|
A|-5------------|-5------------|-5------------|-5------------|
E|--------------|--------------|--------------|--------------|

4:30
G|-----7----7---|-----7----7---|-----7----7---|-----7----7---|
D|-------7----7-|-------7----7-|-------7----7-|-------7----7-|
A|-5------------|-5------------|-5------------|-5------------|
E|--------------|--------------|--------------|--------------|

4:39
G|-----7----7---|-----7----7---|-----7----7---|-----7----7---|
D|-------7----7-|-------7----7-|-------7----7-|-------7----7-|
A|-5------------|-5------------|-5------------|-5------------|
E|--------------|--------------|--------------|--------------|

4:48
G|-----7----7---|----------7--|-----7----7---|----------7---|
D|-------7----7-|-----7-5-----|-------7----7-|-----7-5----7-|
A|-5------------|-5-----------|-5------------|-5------------|
E|--------------|-------------|--------------|--------------|

4:57
G|-----7----7---|-----7----7---|-----7----7---|-----7----7---|
D|-------7----7-|-------7----7-|-------7----7-|-------7----7-|
A|-5------------|-5------------|-5------------|-5------------|
E|--------------|--------------|--------------|--------------|

5:06
G|-----7----7---|-----7----7---|-----7----7---|-----7----7---|
D|-------7----7-|-------7----7-|-------7----7-|-------7----7-|
A|-5------------|-5------------|-5------------|-5------------|
E|--------------|--------------|--------------|--------------|

5:15
G|-----7----7---|-----7----7---|-----7----7---|-----7----7---|
D|-------7----7-|-------7----7-|-------7----7-|-------7----7-|
A|-5------------|-5------------|-5------------|-5------------|
E|--------------|--------------|--------------|--------------|

5:24
G|-----7----7---|-----7----7--|----------7---|----------7---|
D|-------7----7-|-------7-----|-----7-5----7-|-----7-5----7-|
A|-5------------|-5-----------|-5------------|-5------------|
E|--------------|-------------|--------------|--------------|

5:34
G|---------7--|-----7----7---|-----7----7--|-----7----7---|
D|------7-----|-------7----7-|-------7-----|-------7----7-|
A|-5----------|-5------------|-5-----------|-5------------|
E|------------|--------------|-------------|--------------|

5:42
G|-----7----7--|-----7----7---|-----7----7---|-----7----7---|
D|-------7-----|-------7----7-|-------7----7-|-------7----7-|
A|-5-----------|-5------------|-5------------|-5------------|
E|-------------|--------------|--------------|--------------|

5:52
G|-----7----7---|-----7----7---|-----7----7---|-----7----7---|
D|-------7----7-|-------7----7-|-------7----7-|-------7----7-|
A|-5------------|-5------------|-5------------|-5------------|
E|--------------|--------------|--------------|--------------|

6:01
G|-----7----7---|-----7----7---|-----7----7---|-----7----7--|
D|-------7----7-|-------7----7-|-------7----7-|-------7-----|
A|-5------------|-5------------|-5------------|-5-----------|
E|--------------|--------------|--------------|-------------|

6:10
G|-----7----7---|-----7----7---|-----7----7---|-----7----7---|
D|-------7----7-|-------7----7-|-------7----7-|-------7----7-|
A|-5------------|-5------------|-5------------|-5------------|
E|--------------|--------------|--------------|--------------|

6:19
G|-----7----7--|-----7----7--|-----7----7--|-----7----7--|
D|-------7-----|-------7-----|-------7-----|-------7-----|
A|-5-----------|-5-----------|-5-----------|-5-----------|
E|-------------|-------------|-------------|-------------|

6:27
G|-----7----7--|-----7----7--|-----7----7--|-----7----7--|
D|-------7-----|-------7-----|-------7-----|-------7-----|
A|-5-----------|-5-----------|-5-----------|-5-----------|
E|-------------|-------------|-------------|-------------|

6:36
G|----------7--|-----7----7--|----------7--|-----7----7--|
D|-----7-5-----|-------7-----|-----7-5-----|-------7-----|
A|-5-----------|-5-----------|-5-----------|-5-----------|
E|-------------|-------------|-------------|-------------|

6:45
G|----------7--|-----7----7---|----------7---|-----7----7---|
D|-----7-5-----|-------7----7-|-----7-5----7-|-------7----7-|
A|-5-----------|-5------------|-5------------|-5------------|
E|-------------|--------------|--------------|--------------|

6:53
G|-----7----7---|-----7----7---|-----7----7---|-----7----7---|
D|-------7----7-|-------7----7-|-------7----7-|-------7----7-|
A|-5------------|-5------------|-5------------|-5------------|
E|--------------|--------------|--------------|--------------|

7:02
G|-----7----7---|-----7----7---|-----7----7---|-----7----7---|
D|-------7----7-|-------7----7-|-------7----7-|-------7----7-|
A|-5------------|-5------------|-5------------|-5------------|
E|--------------|--------------|--------------|--------------|

7:11
G|----------7---|----------7---|----------7---|----------7---|
D|-----7-5----7-|-----7-5----7-|-----7-5----7-|-----7-5----7-|
A|-5------------|-5------------|-5------------|-5------------|
E|--------------|--------------|--------------|--------------|

7:20
G|----------7---|-----7----7---|-----7----7---|----------7---|
D|-----7-5----7-|-------7----7-|-------7----7-|-----7-5----7-|
A|-5------------|-5------------|-5------------|-5------------|
E|--------------|--------------|--------------|--------------|

7:28
G|-----7----7---|-----7----7---|-----7----7---|-----7----7---|
D|-------7----7-|-------7----7-|-------7----7-|-------7----7-|
A|-5------------|-5------------|-5------------|-5------------|
E|--------------|--------------|--------------|--------------|

7:37
G|----7---7----7-|-----7----7---|-----7----7---|-----7----7---|
D|------7----7---|-------7----7-|-------7----7-|-------7----7-|
A|-5-------------|-5------------|-5------------|-5------------|
E|---------------|--------------|--------------|--------------|

7:46
G|-----7----7---|-----7----7---|-----7----7---|-----7----7---|
D|-------7----7-|-------7----7-|-------7----7-|-------7----7-|
A|-5------------|-5------------|-5------------|-5------------|
E|--------------|--------------|--------------|--------------|

7:54
G|----------7---|-----7----7--|-----7----7---|-----7----7---|
D|-----7-5----7-|-------7-----|-------7----7-|-------7----7-|
A|-5------------|-5-----------|-5------------|-5------------|
E|--------------|-------------|--------------|--------------|

8:02
G|-------7----7-|-------7----7-|-------7----7-|-------7----7-|
D|-----7----7---|-----7----7---|-----7----7---|-----7----7---|
A|-5------------|-5------------|-5------------|-5------------|
E|--------------|--------------|--------------|--------------|

8:11
G|-------7----7-|-------7----7-|-------7----7-|-------7----7-|
D|-----7----7---|-----7----7---|-----7----7---|-----7----7---|
A|-5------------|-5------------|-5------------|-5------------|
E|--------------|--------------|--------------|--------------|

8:20
G|-------7----7-|-------7----7-|-------7----7-|-------7----7-|
D|-----7----7---|-----7----7---|-----7----7---|-----7----7---|
A|-5------------|-5------------|-5------------|-5------------|
E|--------------|--------------|--------------|--------------|

8:29
G|-------7----7-|-------7----7-|-------7----7-|-------7----7-|
D|-----7----7---|-----7----7---|-----7----7---|-----7----7---|
A|-5------------|-5------------|-5------------|-5------------|
E|--------------|--------------|--------------|--------------|

8:37 
G|-------7----7-|-------7----7-|-----7---7---7---|
D|-----7----7---|-----7----7---|---7---7---7---7-|
A|-5------------|-5------------|-5---------------|
E|--------------|--------------|-----------------|

8:43 (accelerating, lapse into free time and play this figure very rapidly
      with no concern for accuracy. Sustain the D on the A string throughout
      to create the chord and distortion)
G|---7---7---7---7-|
D|-----7-------7---|
A|-5-------5-------|
E|-----------------|

9:46 (play this figure repeatedly, sustaining the notes, in close to 4/4 but
      fluctuating not according to the rhythm of the other instruments, but
      their intensity during this section returning to the basic 4/4 tempo)
G|---7---7---7---7-|
D|-----------------|
A|-5---5---5---5---|
E|-----------------|

10:14
G|-----7----7---|-----7----7---|-------7----7-|-------7----7-|
D|-------7----7-|-------7----7-|-----7----7---|-----7----7---|
A|-5------------|-5------------|-5------------|-5------------|
E|--------------|--------------|--------------|--------------|

10:23
G|-------7----7-|-------7----7-|-------7----7-|-5-----5----5-|
D|-----7----7---|-----7----7---|-----7----7---|-5---5----5---|
A|-5------------|-5------------|-5------------|-3------------|
E|--------------|--------------|--------------|--------------|

10:32
G|-------7----7-|-------7----7-|-------7----7-|-------5----5-|
D|-----7----7---|-----7----7---|-----7----7---|-5---5----5---|
A|-5------------|-5------------|-5------------|-3------------|
E|--------------|--------------|--------------|--------------|

10:41
G|-------7----7-|-------7-----|-------7----7-|-------7----7-|
D|-----7----7---|-----7----7--|-----7----7---|-----7----7---|
A|-5------------|-5-----------|-5------------|-5------------|
E|--------------|-------------|--------------|--------------|

10:50
G|-------7----7-|-------7----7-|-------7----7-|-------7-----|
D|-----7----7---|-----7----7---|-----7----7---|-----7----7--|
A|-5------------|-5------------|-5------------|-5-----------|
E|--------------|--------------|--------------|-------------|

10:59
G|-------7----7-|-------7----7-|-------7-----|-------7----7-|
D|-----7----7---|-----7----7---|-----7----7--|-----7----7---|
A|-5------------|-5------------|-5-----------|-5------------|
E|--------------|--------------|-------------|--------------|

11:08
G|-------7----7-|-------7----7-|-------7----7-|-------7-----|
D|-----7----7---|-----7----7---|-----7----7---|-----7----7--|
A|-5------------|-5------------|-5------------|-5-----------|
E|--------------|--------------|--------------|-------------|

11:17
G|-------7----7-|-------7-(7)-|-(7)-|-(7)-|
D|-----7----7---|-----7----7--|-(7)-|-(7)-|
A|-5------------|-5-----------|--5--|-(5)-|
E|--------------|-------------|-----|-----|

            
            
Suggest correction
Creating personal tab
Creating personal tab
You can edit any tab online and save it as your Personal.

You can edit, replace or remove any tab part or add personal notes – all changes will be seen only by you.

Personal tabs can be accessed anytime from any device, even offline.
Learn more »
Give kudos to tab author, rate the tab!
1 2 3 4 5
comments
print report bad tab
2 comments total.
0 reply
McCandlessJohnJ 10 Aug 02, 2014 07:35 AM

Lack of formatting.

0 reply
McCandlessJohnJ 10 Aug 02, 2014 07:36 AM

Lack of formatting. Tab incomplete.

guest
You may want to rate the tab now too:
select rating
Wanna post a correction for this tab? Suggest correction