Oops, an error
Loading. Please wait.

The Ghost Song bass

version 1
version 1

Whole song

Interactive

7,273 views 15 this week
1 commentread comment
1 2 3 4 5
x 6
add to favorites
×
Save as Personal and add changes to this tab that will be seen only by you. Learn more ›
×
You can save this tab as Personal to edit and correct it or add notes. All changes will be seen only by you. Learn more »
launch autoscroll
font size
0
reset
guitar tuner
edit
Autoscroll
slow
fast
+/-
esc
set tempo
stop
Difficulty
intermediate
The Doors - The Ghost Song
Tune the E string up half-step




G|--------12------|--------12/14/12--|---------12-------|-----12/14/12---|
D|----------------|--------12/14/12--|------------------|-----12/14/12---|
A|----------------|------------------|------------------|----------------|
E|-00-------------|-00---------------|-00---------------|-00-------------|


G|--------12------|--------12/14/12--|------------------|----------------|
D|----------------|--------12/14/12--|------------------|----------------|
A|----------------|------------------|--7-5-7-----5-7---|--7-5-7----5-7--|
E|-00-------------|-00---------------|--------0-------0-|--------0------0|


G|-5/7---5/7-5/7--|------------------|------------------|----------------|
D|----------------|------------------|------------------|-----5--5-------|
A|----------------|--7-5-7---5757----|-575757----5-7----|----------------|
E|----------------|--------0------0--|--------0------0--|-2---------0----|
    P     P   P                                               P  P
  
G|----------------|------------------|---5/7---5/7-5/7--|----------------|
D|----------------|------------------|------------------|----------------|
A|--5-7------575--|------5-7---5757--|------------------|-----5-7--------|
E|------0--------0|-2-3------0------0|------------------|-0-------0------|
                                          P     P   P


G|----------------|-5/7-----5/7-5/7--|------------------|----------------|
D|----------------|------------------|------------------|----------------|
A|--5-7-----5-7---|------------------|------5-7---------|--5-7-----5-7---|
E|------0-------0-|------------------|--0-------0-------|------0-------0-|
                     P       P   P


G|-5/7---5/7-5/7--|------------------|------------------|-5/7---5/7-5/7--|
D|----------------|------------------|------------------|----------------|
A|----------------|----5-7-----------|--5-7-----5-7-----|----------------|
E|----------------|-0------0---------|------0-------0---|----------------|
    P     P   P                                            P     P   P


G|----------------|------------------|------------------|----------------|
D|----------------|------------------|-----5--7---------|----------------|
A|----5-7---------|--5-7------5-7----|------------------|--5-7-----------|
E|-0------0-------|------0--------0--|-2-----------0----|------0---------|
                                           P  P


G|-5/7-5/7-------|-------------------|------------------|--5/7-5/7-------|
D|----------------|-------------5-7--|------------------|----------------|
A|----------------|--5-7-------------|-----5-7----------|----------------|
E|-----------0----|------0---2-------|-0-------0--------|------------0---|
    P   P                       P P                         P   P




G|----------------|------------------|------------------|----------------|
D|-----------5-7--|------------------|------------------|---5--7---------|
A|-5-7------------|----5-7-----------|-5-7-------5-7----|----------------|
E|-----0--2-------|-0------0---23----|------0--------0--|---------0------|
             P P                                            P  P


G|----------------|------------------|------------------|----------------|
D|----------------|---------5---7----|---------5---7----|---------5---7--|
A|-------57757----|--57757-----------|-57757------------|-57757----------|
E|-------------0--|-------0---0---0--|-------0---0---0--|-------0---0---0|
                          S P S P S          S P S P S          S P S P S
 
G|----------------|------------------|-------------5/7--|----------------|
D|----------------|---------5---7----|------------------|----------5---7-|
A|-57757----------|-57757------------|-57757------------|-57757----------|
E|-------0--------|-------0---0------|-------0----------|--------0---0---|X3
                                                    P            S P S P


" Indians scattered on dawns highway bleeding, etc."


G|----------------|------------------|------------------|---------10/12--|
D|----------------|------------------|------------------|----------------|
A|----------------|------------------|------------------|----------------|
E|-1-3------------|-1-3--------------|-1-3--------------|-1-3------------|
                                                                    P
Repeat till end of song.


            
            
Suggest correction
Creating personal tab
Creating personal tab
You can edit any tab online and save it as your Personal.

You can edit, replace or remove any tab part or add personal notes – all changes will be seen only by you.

Personal tabs can be accessed anytime from any device, even offline.
Learn more »
comments
print report bad tab
1 comment total.
0 reply
R8:31b 1,731 May 29, 2010 11:50 PM

its all right except the first few bits where you're doing the popping, instead of popping 5/7 you need to be popping 7/9. other than that its all right to me.

guest
Wanna post a correction for this tab? Suggest correction