Oops, an error
Loading. Please wait.

State Line Lookout bass

22 views 1 this week
no commentswrite comment
1 2 3 4 5
3 more votes to show rating
add to favorites
×
Save as Personal and add changes to this tab that will be seen only by you. Learn more ›
×
You can save this tab as Personal to edit and correct it or add notes. All changes will be seen only by you. Learn more »
launch autoscroll
font size
0
reset
guitar tuner
edit
Autoscroll
slow
fast
+/-
esc
set tempo
stop
Artist: The Doppler Effect
Song: State Line Lookout

Tab by: sXeDusten

Tuning: Half-Step Down
Eb Ab Db Gb

Intro
|-----------------|-----------------|-----------------|-----------------|
|-----------------|-----------------|-----------------|-----------------|
|-----------------|-----------------|-----------------|-----------------|
|-----------------|-----------------|-----------------|---------12\\\-3-|

|-----------------|-----------------|-----------------|-----------------|
|-----------------|-----------------|-----------------|-----------------|
|-----------------|-----------------|-----------------|-----------------|
|---3-3---3-3---5-|---5-5---5-5---7-|---7-7---7-7-7-7-|-77777---------3-|

|-----------------|-----------------|-----------------|-----------------|
|-----------------|-----------------|-----------------|-------------7---|
|-----------------|-----------------|-----------------|----7/9--7-9-----|
|---3-3---3-----5-|---5-5---5-----7-|---7-7---7-----7-|---7-----------3-|

|-----------------|-----------------|-----------------|-----------------|
|-----------------|-----------------|-----------------|-----------------|
|-----------------|-----------------|-----------------|-----------------|
|---3-3---3-----5-|---5-5---5-5---7-|---7-7---7-----7-|---7-7---7-7---7-|

Interlude
|-----------------|-----------------|
|-----------------|-----------------|
|-----------------|-----------------|
|-5-7-7-5-7---5-7-|--------(7)\\\-5-|

Verse
|-----------------|-----------------|-----------------|-----------------|
|-----------------|-----------------|-----------------|-----------------|
|-----------------|-----------------|-----------------|-5---5-----------|
|---7-7-5-7-7---7-|---5-7---7\5-X-2-|---3-3-2-3-2---5-|--------55-5---5-|

|-----------------|-----------------|-----------------|-----------------|
|-----------------|-----------------|-----------------|-----7-----------|
|-----------------|-----------------|-----------------|-5------99-7-5---|
|---7-7-5-7-7---7-|-7-5-7---7\5-X-2-|---3-3-2-3-2---5-|---------------5-|

|-----------------|-----------------|-----------------|-----------------|
|-----------------|-----------------|-----------------|-----------------|
|-----------------|-----------------|-----------------|-5---5-----------|
|---7-7-5-7-7---7-|---5-7---7\5-X-2-|---3-3-2-3-3---5-|--------55-5---5-|

|-----------------|-----------------|-----------------|-----------------|
|-----------------|-----------------|-----------------|-----7-7---------|
|-----------------|-----------------|-----------------|-5-------9-7-5---|
|---7-7-5-7-7---7-|-7-5-7---7\5-X-2-|---3-3-2-3-2---5-|-----------------|

Pre-Chorus
|-----------------|-----------------|-----------------|-----------------|
|-----------------|-----------------|-----------------|-----------------|
|-----------------|-----------------|-----------------|---------------5-|
|-----------------|-----------------|---------------0-|---0---3---3-----|

|-----------------|-----------------|-----------------|-----------------|
|-----------------|-----------------|-----------------|-----------------|
|---5-----------5-|---5-------------|-5-5---------5---|---------------5-|
|------33-3-3-3---|------33-3-3-3-3-|-------3-3-3---0-|---0---3---3-----|

|-----------------|-----------------|-----------------|-----------------|
|-----------------|-----------------|-----------------|-----------------|
|---5-----------5-|---5-------------|-5-5-------------|-----------------|
|------33-3-3-3---|------33-3-3-3-3-|-------3-3-3-3-3-|-0--0--0-3-------|

Chorus
|-----------------|-----------------|-----------------|-----------------|
|-----------------|-----------------|-----------------|-----------------|
|-5-------------5-|---5-5---5-5---5-|-5-------5-----5-|---5-5---5-5-----|
|-----------------|-----------------|-----------------|---------------3-|

|-----------------|-----------------|-----------------|-----------------|
|-----------------|-----------------|-----------------|---------5-5-5---|
|-----------------|-----------------|-----------------|-----------------|
|-3-------------3-|---3-3---3-3---3-|-3---3---3-----3-|-3-3-3-3-------5/|

|-----------------|-----------------|-----------------|-----------------|
|-----------------|-----------------|-----------------|-----------------|
|-----------------|-----------------|-----------------|-----------------|
|-7---7---7-7-7-7-|---7-7---7-7-7-7-|-5-5-5---5-5-5-5-|---5-5-5---5-5-5-|

|-----------------|-----------------|-----------------|-----------------|
|-----------------|-----------------|-----------------|-----------------|
|-----------------|-----------------|-----------------|-----------------|
|-3-3-3-3-3-----3-|---3-3---3---3-3-|-3-3-3-3-3-----3-|---3-3---3-3-3-3-|

Interlude
|-----------------|-----------------|-----------------|-----------------|
|-----------------|-----------------|-----------------|-----------------|
|-----------------|-----------------|-----------------|---------7-9-----|
|-3-3-3---3-----5-|---5-5---5-----7-|---7-7---7-7---7-|---7---7-------3-|

|-----------------|-----------------|-----------------|-----------------|
|-----------------|-----------------|-----------------|-----------------|
|-----------------|-----------------|-----------------|---------------0-|
|---3-3---3-3---5-|---5-5---5-5---7-|---7-7---7-7---7-|---7---7-7-7-7---|

Verse
|-----------------|-----------------|-----------------|-----------------|
|-----------------|-----------------|-----------------|-----------------|
|-5---------------|-----------------|-------2-2-2-0---|---0-0-----0-0---|
|-----------------|-----------------|-0-3-3-----------|-----------------|

|-----------------|-----------------|-----------------|-----------------|
|-----------------|-----------------|-----------------|-----------------|
|-0-2-2-5-5-5-----|-----------------|-------2-2-2-2-0-|---0-0-0-0-0-0-0-|
|-------------3---|---3-3-----3-3---|-0-3-3-----------|-----------------|

|-----------------|-----------------|-----------------|-----------------|
|-----------------|-----------------|-----------------|-----------------|
|-----------------|-----------------|-5-5-5-5---5-5-2-|---2-2-2-2-2-2-0-|
|-0-0-0-0---0-0-3-|---3-3-3-3-3-3-3-|-----------------|-----------------|

|-----------------|-----------------|-----------------|-----------------|
|-----------------|-----------------|-----------------|-----------------|
|-----------------|-----------------|-5-5-5-5---5-5-0-|---0-0-0-0-0-0-0-|
|-0-0-0-0---0-0-3-|---3-3-3-3-3-3-3-|-----------------|-----------------|

|-----------------|
|-----------------|
|-0-0-0-0-0-0-0-0-|
|-----------------|

Chorus
|-----------------|-----------------|-----------------|-----------------|
|-----------------|-----------------|-----------------|-----------------|
|-5-------5-----5-|---5-5---5-5---5-|-5-------5-----5-|---5-5---5-5-----|
|-----------------|-----------------|-----------------|---------------3-|

|-----------------|-----------------|-----------------|-----------------|
|-----------------|-----------------|-----------------|-----------------|
|-----------------|-----------------|-----------------|-----------------|
|-3---3---3-----3-|---3-3---3-3---3-|-3-------3-----3-|-3-3-3-3-3-3-3-3-|

|-----------------|-----------------|-----------------|-----------------|
|-----------------|-----------------|-----------------|-----------------|
|-----------------|-----------------|-----------------|-----------------|
|-7---7---7-7-7-7-|---7-7-7-7-7-7-7-|-5-5-5---5-5-5-5-|---5-5-5---5-5-5-|

|-----------------|-----------------|-----------------|-----------------|
|-----------------|-----------------|-----------------|-----------------|
|-----------------|-----------------|-----------------|-----------------|
|-3-3-3-3-3-----3-|---3-3---3---3---|-3-3-3-3-3-----3-|---3-3---3-3-3-3-|

Bridge

|-----------------|-----------------|-----------------|-----------------|
|-----------------|-----------------|-----------------|-----------------|
|-----------------|-----------------|-----------------|-----------------|
|-----------------|-----------------|-----------------|-----------------|

|-----------------|-----------------|-----------------|-----------------|
|-----------------|-----------------|-----------------|-----------------|
|-----5-5-5-4---0-|-----0-2-2-2-----|-----5-5-5-4---0-|-----2-2-2-2-----|
|-3---------------|---------------3-|-3---------------|---------------3-|

|-----------------|-----------------|-----------------|-----------------|
|-----------------|-----------------|-----------------|-----------------|
|-----5-5-5-4---0-|-----2-2-2-2-----|-----5-5-5-4---0-|-----2-2-2-2-----|
|-3---------------|---------------3-|-3---------------|---------------3-|

|-----------------|-----------------|-----------------|-----------------|
|-----------------|-----------------|-----------------|-----------------|
|-----5---5-4---0-|---0-2-2---2-----|-----5---5-4---0-|---0-2-2-2-2-----|
|---3-------------|---------------3-|---3-------------|---------------3-|

|-----------------|-----------------|-----------------|-----------------|
|-----------------|-----------------|-----------------|-----------------|
|-----5---5-4---0-|---0-2-2---2-----|-----5---5-4---0-|---0-2-2-2-2-0---|
|---3-------------|---------------3-|---3-------------|---------------3-|

|-----------------|-----------------|-----------------|-----------------|
|-----------------|-----------------|-----------------|-----------------|
|-----------------|---------------2-|---2-2-2-2-2-2-0-|---0-0-0-2-2-0---|
|---3-3-3-3-3-3-3-|-3-3-3-3-3-3-3---|-----------------|---------------3-|

|-----------------|-----------------|-----------------|-----------------|
|-----------------|-----------------|-----------------|-----------------|
|-----------------|---------------2-|---2-2-2-2-2-2-2-|-2-2-2-2-0-2-0---|
|---3-3-3-3-3-3-3-|-3-3-3-3-3-3-3---|-----------------|-----------------|

Interlude
|-----------------|-----------------|-----------------|-----------------|
|-----------------|-----------------|-----------------|-----------------|
|-----------------|-----------------|-----------------|-----------------|
|-----------------|-----------------|-----------------|-0--0--0-3-------|

Chorus 
|-----------------|-----------------|-----------------|-----------------|
|-----------------|-----------------|-----------------|-----------------|
|-----------------|-----------------|-----------------|-----------------|
|-----------------|-----------------|-3-3-3-3-3-3-3-3-|-3-3-3-3-3-3-3-3-|
                                        *Build Up <<<<<<<<<<<<<<<<<<<<<<<
Outro/Chorus
|-----------------|-----------------|-----------------|-----------------|
|-----------------|-----------------|-----------------|-----------------|
|-5-5-5-5-5-5-5-5-|-5-5-5-5-5-5-5-5-|-5-5-5-5-5-5-5-5-|-5-5-5-5-5-5-5-5-|
|-----------------|-----------------|-----------------|-----------------|

|-----------------|-----------------|-----------------|-----------------|
|-----------------|-----------------|-----------------|-----------------|
|-----------------|-----------------|-----------------|-----------------|
|-3-3-3-3-3-3-3-3-|-3-3-3-3-3-3-3-3-|-3-3-3-3-3-3-3-3-|-3-3-3-3-3-3-3-3-|

|-----------------|-----------------|-----------------|-----------------|
|-----------------|-----------------|-----------------|-----------------|
|-----------------|-----------------|-----------------|-----------------|
|-7-7-7-7-7-7-7-7-|-7-7-7-7-7-7-7-7-|-5-5-5-5-5-5-5-5-|-5-5-5-5-5-5-5-5-|

|-----------------|-----------------|-----------------|-----------------|
|-----------------|-----------------|-----------------|-----------------|
|-----------------|-----------------|-----------------|-----------------|
|-3-3-3-3-3-3-3---|-3-3-3---3-3-3---|-3-3-3-3-3-3-3---|-3-3-3---3-3-3-3-|

|-----------------|-----------------|
|-----------------|-----------------|
|-----5---5-4---0-|---0-X-2----(2)\\|
|---3-------------|-----------------|

            
            
Suggest correction
Creating personal tab
Creating personal tab
You can edit any tab online and save it as your Personal.

You can edit, replace or remove any tab part or add personal notes – all changes will be seen only by you.

Personal tabs can be accessed anytime from any device, even offline.
Learn more »
Give kudos to tab author, rate the tab!
1 2 3 4 5
comments
print report bad tab
guest
You may want to rate the tab now too:
select rating
Wanna post a correction for this tab? Suggest correction