Oops, an error
Loading. Please wait.

Beautiful Apartment tab

version 1
version 1

Whole song

4,189 views 3 this week
no commentswrite comment
1 2 3 4 5
2 more votes to show rating
add to favorites
×
Save as Personal and add changes to this tab that will be seen only by you. Learn more ›
×
You can save this tab as Personal to edit and correct it or add notes. All changes will be seen only by you. Learn more »
launch autoscroll
font size
0
reset
how to read this tab
guitar tuner
edit
Autoscroll
slow
fast
+/-
esc
set tempo
stop
Beautiful Apartment by The Drills!!


E|------------------------------------------------------------------|
B|------------------------------------------------------------------|
G|-------8-8-------9-9-9-9-9-9-9-9-9-9-9-9-9-9----------------------|
D|-2-2---6-6---2-2-9-9-9-9-9-9-9-9-9-9-9-9-9-9--6--4-4--7-7--6-6----|
A|-2-2---4-4---2-2-7-7-7-7-7-7-7-7-7-7-7-7-7-7--4--4-4--4-4--4-4----|
E|-2-2---------2-2--------------------------------------------------|



E|-----------------------------------------------------------------|
B|-----------------------------------------------------------------|
G|---------------------------------6-6-6-6-6-6-6-6-4-4-4-4-4-4-4-4-|
D|-7-7-7-7-7-7-7-7-6-6-6-6-6-6-6-6-6-6-6-6-6-6-6-6-4-4-4-4-4-4-4-4-|
A|-7-7-7-7-7-7-7-7-7-7-7-7-7-7-7-7-4-4-4-4-4-4-4-4-2-2-2-2-2-2-2-2-|
E|-7-7-7-7-7-7-7-7-6-6-6-6-6-6-6-6---------------------------------|



E|-----------------------------------------------------------------|
B|-----------------------------------------------------------------|
G|---------------------------------6-6-6-6-6-6-6-6-4-4-4-4-4-4-4-4-|
D|-7-7-7-7-7-7-7-7-6-6-6-6-6-6-6-6-6-6-6-6-6-6-6-6-4-4-4-4-4-4-4-4-|
A|-7-7-7-7-7-7-7-7-7-7-7-7-7-7-7-7-4-4-4-4-4-4-4-4-2-2-2-2-2-2-2-2-|
E|-7-7-7-7-7-7-7-7-6-6-6-6-6-6-6-6---------------------------------|



E|-------------------------------------------------|
B|-------------------------------------------------|
G|-9--9--9-9-9-------------6--6--6-6-6-------------|
D|-9--9--9-9-9-9--9--9-9-9-6--6--6-6-6-7--7--7-7-7-|
A|-7--7--7-7-7-9--9--9-9-9-4--4--4-4-4-7--7--7-7-7-|
E|-------------9--9--9-9-9-------------7--7--7-7-7-|



E|-------------------------------------------------|
B|-------------------------------------------------|
G|-9--9--9-9-9-------------6--6--6-6-6-------------|
D|-9--9--9-9-9-9--9--9-9-9-6--6--6-6-6-7--7--7-7-7-|
A|-7--7--7-7-7-9--9--9-9-9-4--4--4-4-4-7--7--7-7-7-|
E|-------------9--9--9-9-9-------------7--7--7-7-7-|



E|-----------------------------------------------|
B|-----------------------------------------------|
G|--9--9---------------6--6--6-6-6---------------|
D|--9--9---------------6--6--6-6-6--7--7--7-7-7--|
A|--7--7-----------2---4--4--4-4-4--7--7--7-7-7--|
E|--------7--6--2-------------------7--7--7-7-7--|



E|-------------------------------------------------|
B|-------------------------------------------------|
G|-9--9--9-9-9-8--8--8-8-8-6--6--6-6-6--5-5--5--5--|
D|-9--9--9-9-9-9--9--9-9-9-6--6--6-6-6--5-5--5--5--|
A|-7--7--7-7-7-6--6--6-6-6-4--4--4-4-4--3-3--3--3--|
E|-------------------------------------------------|


E|--------0-----------0-----------0-----------0----|
B|--------0-----------4-----------0-----------4----|
G|-------------------------------------------------|
D|--2--2-----2--2--2-----2--2--2-----2--2--2-----2-|
A|--2--2-----2--2--2-----2--2--2-----2--2--2-----2-|
E|--2--2-----2--2--2-----2--2--2-----2--2--2-----2-|



E|---------------------------------------------------|
B|---------------------------------------------------|
G|--8--8--8--8--8--8--8--8--8--8--8--8--8--8--8--8---|
D|--6--6--6--6--6--6--6--6--7--7--7--7--7--7--7--7---|
A|--4--4--4--4--4--4--4--4--7--7--7--7--7--7--7--7---|
E|--------------------------7--7--7--7--7--7--7--7---|



E|--------------------------------------------------------------------------|
B|------------------------------4-5-----------------------------------------|
G|----------------------------4------9-9-9-9-9-9-9-9------------------------|
D|--2-2---6--4--4--7--7--6--6--------9-9-9-9-9-9-9-9--6--4--4--7--7--6--6---|
A|--2-2---4--4--4--4--4--4--4--------7-7-7-7-7-7-7-7--4--4--4--4--4--4--4---|
E|--2-2---------------------------------------------------------------------|



E|-----------------------------------------------------------------|
B|-----------------------------------------------------------------|
G|---------------------------------6-6-6-6-6-6-6-6-4-4-4-4-4-4-4-4-|
D|-7-7-7-7-7-7-7-7-6-6-6-6-6-6-6-6-6-6-6-6-6-6-6-6-4-4-4-4-4-4-4-4-|
A|-7-7-7-7-7-7-7-7-7-7-7-7-7-7-7-7-4-4-4-4-4-4-4-4-2-2-2-2-2-2-2-2-|
E|-7-7-7-7-7-7-7-7-6-6-6-6-6-6-6-6---------------------------------|



E|-----------------------------------------------------------------|
B|-----------------------------------------------------------------|
G|---------------------------------6-6-6-6-6-6-6-6-4-4-4-4-4-4-4-4-|
D|-7-7-7-7-7-7-7-7-6-6-6-6-6-6-6-6-6-6-6-6-6-6-6-6-4-4-4-4-4-4-4-4-|
A|-7-7-7-7-7-7-7-7-7-7-7-7-7-7-7-7-4-4-4-4-4-4-4-4-2-2-2-2-2-2-2-2-|
E|-7-7-7-7-7-7-7-7-6-6-6-6-6-6-6-6---------------------------------|



E|-------------------------------------------------|
B|-------------------------------------------------|
G|-9--9--9-9-9-------------6--6--6-6-6-------------|
D|-9--9--9-9-9-9--9--9-9-9-6--6--6-6-6-7--7--7-7-7-|
A|-7--7--7-7-7-9--9--9-9-9-4--4--4-4-4-7--7--7-7-7-|
E|-------------9--9--9-9-9-------------7--7--7-7-7-|



E|-------------------------------------------------|
B|-------------------------------------------------|
G|-9--9--9-9-9-------------6--6--6-6-6-------------|
D|-9--9--9-9-9-9--9--9-9-9-6--6--6-6-6-7--7--7-7-7-|
A|-7--7--7-7-7-9--9--9-9-9-4--4--4-4-4-7--7--7-7-7-|
E|-------------9--9--9-9-9-------------7--7--7-7-7-|



E|-----------------------------------------------|
B|-----------------------------------------------|
G|--9--9---------------6--6--6-6-6---------------|
D|--9--9---------------6--6--6-6-6--7--7--7-7-7--|
A|--7--7-----------2---4--4--4-4-4--7--7--7-7-7--|
E|--------7--6--2-------------------7--7--7-7-7--|



E|-------------------------------------------------|
B|-------------------------------------------------|
G|-9--9--9-9-9-8--8--8-8-8-6--6--6-6-6--5-5--5--5--|
D|-9--9--9-9-9-9--9--9-9-9-6--6--6-6-6--5-5--5--5--|
A|-7--7--7-7-7-6--6--6-6-6-4--4--4-4-4--3-3--3--3--|
E|-------------------------------------------------|




E|------------------------------------------|
B|------------------------------------------|
G|------------------------------------------|
D|-2----2-----2----2-----2----2-----2----2--|
A|-2----2-----2----2-----2----2-----2----2--|
E|-2----2-----2----2-----2----2-----2----2--|



E|---------------------------------------------------------------------|
B|---------------------------------------------------------------------|
G|---------------------------------------------------------------------|
D|--2---2--0--1--2--0--1--2--0--1--2--0--1--2--0--1--2--2--5--5--8--8--|
A|--2---2--0--1--2--0--1--2--0--1--2--0--1--2--0--1--2--2--5--5--8--8--|
E|--2---2--0--1--2--0--1--2--0--1--2--0--1--2--0--1--2--2--5--5--8--8--|



E|---------------------------------------------------------------------|
B|---------------------------------------------------------------------|
G|---------------------------------------------------------------------|
D|--2---2--0--1--2--0--1--2--0--1--2--0--1--2--0--1--2--2--5--5--8--8--|
A|--2---2--0--1--2--0--1--2--0--1--2--0--1--2--0--1--2--2--5--5--8--8--|
E|--2---2--0--1--2--0--1--2--0--1--2--0--1--2--0--1--2--2--5--5--8--8--|


SOLO



E|-------------------------------------------------------|
B|-------------------------------------------------------|
G|-------------------------------------------------------|
D|-0-0--0--0--0-0-0--0--0--0-0-0--0--0--0-0-0--0--0--0-0-|
A|-0-0--0--0--0-0-0--0--0--0-0-0--0--0--0-0-0--0--0--0-0-|
E|-0-0--0--0--0-0-0--0--0--0-0-0--0--0--0-0-0--0--0--0-0-|



E|-------------------------------------------------|
B|-------------------------------------------------|
G|-9--9--9-9-9-------------6--6--6-6-6-------------|
D|-9--9--9-9-9-9--9--9-9-9-6--6--6-6-6-7--7--7-7-7-|
A|-7--7--7-7-7-9--9--9-9-9-4--4--4-4-4-7--7--7-7-7-|
E|-------------9--9--9-9-9-------------7--7--7-7-7-|



E|---------------------------------------------------|
B|---------------------------------------------------|
G|-9--9--9-9-9-8--8--8-8-8-6--6--6-6-6---------------|
D|-9--9--9-9-9-9--9--9-9-9-6--6--6-6-6--7--7--7-7-7--|
A|-7--7--7-7-7-6--6--6-6-6-4--4--4-4-4--7--7--7-7-7--|
E|--------------------------------------7--7--7-7-7--|



E|-------------------------------------------------|
B|-------------------------------------------------|
G|-9--9--9-9-9-------------6--6--6-6-6-------------|
D|-9--9--9-9-9-9--9--9-9-9-6--6--6-6-6-7--7--7-7-7-|
A|-7--7--7-7-7-9--9--9-9-9-4--4--4-4-4-7--7--7-7-7-|
E|-------------9--9--9-9-9-------------7--7--7-7-7-|



E|-------------------------------------------------|
B|-------------------------------------------------|
G|-9--9--9-9-9-8--8--8-8-8-6--6--6-6-6--5-5--5--5--|
D|-9--9--9-9-9-9--9--9-9-9-6--6--6-6-6--5-5--5--5--|
A|-7--7--7-7-7-6--6--6-6-6-4--4--4-4-4--3-3--3--3--|
E|-------------------------------------------------|



E|---------------------------------------------------------------------|
B|---------------------------------------------------------------------|
G|---------------------------------------------------------------------|
D|--2---2--0--1--2--0--1--2--0--1--2--0--1--2--0--1--2--2--5--5--8--8--|
A|--2---2--0--1--2--0--1--2--0--1--2--0--1--2--0--1--2--2--5--5--8--8--|
E|--2---2--0--1--2--0--1--2--0--1--2--0--1--2--0--1--2--2--5--5--8--8--|

            
            
Suggest correction
Creating personal tab
Creating personal tab
You can edit any tab online and save it as your Personal.

You can edit, replace or remove any tab part or add personal notes – all changes will be seen only by you.

Personal tabs can be accessed anytime from any device, even offline.
Learn more »
Give kudos to tab author, rate the tab!
1 2 3 4 5
comments
print report bad tab
guest
You may want to rate the tab now too:
select rating
Wanna post a correction for this tab? Suggest correction