Oops, an error
Loading. Please wait.

Blood Under My Belt tab

1,324 views 54 this week
no commentswrite comment
1 2 3 4 5
x 4
add to favorites
×
Save as Personal and add changes to this tab that will be seen only by you. Learn more ›
×
You can save this tab as Personal to edit and correct it or add notes. All changes will be seen only by you. Learn more »
launch autoscroll
font size
0
reset
how to read this tab
guitar tuner
edit
Autoscroll
slow
fast
+/-
esc
set tempo
stop
Song: Blood Under My Belt
Artist: The Drums
Album: "Abysmal Thoughts (2017)"

Tab by: Sydney Deardorff
sydney.deardorff@gmail.com

This song is detuned slightly flat (but not low enough to go down a half step).
If you want to play along with the recording, I suggest you tune your B string down slightly and try
to play the intro with the recording, and then tune the rest of your guitar to match that string.

[Intro]

Guitar 1
e|-------------------------------------------|
B|--8--8--8--8-8--8--6---6--6--6--6-6--6--4--|
G|--8--8--8--8-8--8--5---5--5--5--5-5--5--5--|  x1
D|-------------------------------------------|
A|-------------------------------------------|
E|-------------------------------------------|

[Chorus part 1]

"What does it take..."

Guitar 1
e|-------------------------------------------|
B|--8--8--8--8-8--8--6---6--6--6--6-6--6--4--|
G|--8--8--8--8-8--8--5---5--5--5--5-5--5--5--|  x2
D|-------------------------------------------|
A|-------------------------------------------|
E|-------------------------------------------|

Guitar 2
e|--------------------------------------------------|
B|--------------------------------------------------|
G|--------------------------------------------------|  x2
D|--6--6--6--5--5-5--5--5----6--6--6--5--5-5--5--1--|
A|--------------------------------------------------|
E|--------------------------------------------------|

"Yes it's true..."

Guitar 1
e|-----------------------------|      e|-----------------------------|            
B|--6-6-6-6-6-4--4-4--6-6-4-4--|      B|--6-6-6-6-6-8--8-8--6-6-8-8--|
G|-----------------------------|  x3  G|-----------------------------|  x1
D|-----------------------------|      D|-----------------------------|
A|-----------------------------|      A|-----------------------------|
E|-----------------------------|      E|-----------------------------|

Guitar 2
e|-----------------------------|      e|-----------------------------|  
B|-----------------------------|      B|-----------------------------|  
G|-----------------------------|  x3  G|-----------------------------|  x1
D|--6-6-6-6-6-5--5-5--6-6-5-5--|      D|--6-6-6-6-6-8--8-8--8-8-8-8--|  
A|-----------------------------|      A|-----------------------------|  
E|-----------------------------|      E|-----------------------------|  

[Chorus part 2]

"And what did I say..."

Guitar 1
e|-------------------------------------------|
B|--8--8--8--8-8--8--6---6--6--6--6-6--6--4--|
G|--8--8--8--8-8--8--5---5--5--5--5-5--5--5--|  x2
D|-------------------------------------------|
A|-------------------------------------------|
E|-------------------------------------------|

Guitar 2
e|--8-8---8-8---6-6---6-6----|
B|------8-----8-----8-----8--|
G|---------------------------|  x4
D|---------------------------|
A|---------------------------|
E|---------------------------|

"Yes it's true..."

Guitar 1
e|-----------------------------|      e|-----------------------------|            
B|--6-6-6-6-6-4--4-4--6-6-4-4--|      B|--6-6-6-6-6-8--8-8--6-6-8-8--|
G|-----------------------------|  x3  G|-----------------------------|  x1
D|-----------------------------|      D|-----------------------------|
A|-----------------------------|      A|-----------------------------|
E|-----------------------------|      E|-----------------------------|

Guitar 2
e|--4-4---4-4---3-3---3-3----|
B|------4-----4-----4-----4--|
G|---------------------------|  x4
D|---------------------------|
A|---------------------------|
E|---------------------------|

[Verse]

Guitar 1
e|--4-3------4-3---------|
B|------4-4------4--4-4--|
G|-----------------------|  x8
D|-----------------------|
A|-----------------------|
E|-----------------------|

[Pre-Chorus]

"I know I said change..." 

Guitar 1
e|--4-3------4-3---------|     
B|------4-4------4--4-4--|
G|-----------------------|  x4
D|-----------------------|
A|-----------------------|
E|-----------------------|

Guitar 2
e|----------------------------|      e|--------------------------|
B|----------------------------|      B|--------------------------|
G|----------------------------|  x3  G|--------------------------|  x1
D|--6--6--6--6--5--5--3-3--1--|      D|--6--6--6--6--8--8--8--8--|
A|----------------------------|      A|--------------------------|
E|----------------------------|      E|--------------------------|

Song order:
Intro x1
Chorus (parts 1 & 2) x1
Verse x1
Pre-Chorus x1
Chorus (parts 1 & 2) x1
Verse x1
Pre-Chorus x1
Chorus (parts 1 & 2) x1
Outro (Chorus part 2 + Intro) x1

            
            
Suggest correction
Creating personal tab
Creating personal tab
You can edit any tab online and save it as your Personal.

You can edit, replace or remove any tab part or add personal notes – all changes will be seen only by you.

Personal tabs can be accessed anytime from any device, even offline.
Learn more »
comments
print report bad tab
guest
You may want to rate the tab now too:
select rating
Wanna post a correction for this tab? Suggest correction