Oops, an error
Loading. Please wait.

Shema chords

127 views 1 this week
no commentswrite comment
1 2 3 4 5
3 more votes to show rating
add to favorites
×
Save as Personal and add changes to this tab that will be seen only by you. Learn more ›
×
You can save this tab as Personal to edit and correct it or add notes. All changes will be seen only by you. Learn more »
launch autoscroll
font size
0
reset
transpose
0
reset
simplify chords
display chords
guitar tuner
edit
Autoscroll
slow
fast
+/-
esc
set tempo
stop
Strumming
There is no strumming pattern for this song yet. and get +5 IQ
Capo 3

Main Chords

       Dm/F   Bb    F     Dm   Gm/F  Am/F
d |-----0-----0-----0-----0-----0-----0-----|
a |-----2-----0-----0-----0-----0-----0-----|
F#|-----0-----5-----0-----8-----1-----3-----|
D |-----0-----0-----0-----0-----2-----4-----|
A |-----2-----5-----0-----9-----0-----0-----|
D |-----0-----5-----0-----9-----0-----0-----|


Intro & Main Melody (Strummed, playing all other strings open)

d |--0---|--0---|------------|---------------|---------------|------------------|
a |--0---|--0---|------------|---------------|---------------|------------------|
F#|--3---|--3---|------3--3--|--3------3--3--|--3------3--3--|--3----3--3----3--|
D |--0---|--0---|------0--2--|--4------5--4--|--2------4--2--|--0----2--0-------|
A |--0---|--0---|------------|---------------|---------------|---------------2--|
D |--0---|--0---|------------|---------------|---------------|------------------|

d |------|------------|---------------|---------------|------------------|------|
a |------|------------|---------------|---------------|------------------|------|
F#|--3---|------3--3--|--3------3--3--|--3------------|--3----3--3----3--|--3---|
D |------|------0--2--|--4------5--4--|--2------------|--4----2--5----4--|--0---|
A |--0---|------------|---------------|---------------|------------------|------|
D |------|------------|---------------|---------------|------------------|------|

Interval #1 (Also strummed)

d |------------------|------------------|------------------|------------------|
a |------------------|------------------|------------------|------------------|
F#|--3---3-3-3----3--|--3---3-3-3----3--|--3---3-3-3----3--|--3---3-3-3----3--|
D |--0---0-2-0-------|------0-2-0-------|------0-2-0-------|------0-2-0-------|
A |--------------h2--|--0-----------h2--|--0-----------h2--|--0-----------h2--|
D |------------------|------------------|------------------|------------------|

Interval #2 (Also strummed)

d |--2/4---|--2---|--5---|--7---|--2/4----|--2---|--4---2-|--5--4--|------|
a |--------|------|------|------|---------|------|--------|--------|------|
F#|--------|------|------|------|---------|------|--------|--------|------|
D |--2/4---|--2---|--5---|--7---|--2/4----|--2---|--4---2-|--5--4--|--0---|
A |--------|------|------|------|---------|------|--------|--------|------|
D |--------|------|------|------|---------|------|--------|--------|------|

[Intro]

[Verse - Sung with the Main Melody]
October fire, November rain. I left the fleece outside again.
The dampened ground, the thirsty wool, and I the faithless fool.

[Interval #1]

Dm/F  Bb    F    Gm/F  Am/F
Oh... Oh... Oh

Dm/F  Bb    F    Gm/F  Am/F
Oh... Oh... Oh

[Verse - Sung with the Main Melody]
You dinnae wait, but I dinnae call, and you dinnae comfort me at all.
So I blamed a woman, and a cursed the fall. I curse them devils and angels all.

[Interval #1]

    Dm           Bb        F          Gm/F F
But whose is the voice now keeping me from rest

     Dm    Bb      F    Gm/F F
When all I want is sleep
    Dm            Bb            F        Gm/F F
and whose are the hands pressed hard upon my chest
     Dm    Bb     F
and, oh, I cannae breathe.

[Main Melody]

[Verse - Sung with the Main Melody]
The city's dark, the winter cold. The raven-crow its wings unfold.
But fly from me, ye demon bird. I will not make myself the third.

[Interval #1]

    Dm           Bb        F          Gm/F F
But whose is the voice now keeping me from rest
     Dm    Bb      F    Gm/F F
when all I want is sleep?
    Dm            Bb            F        Gm/F F
And whose are the hands pressed hard upon my chest
     Dm    Bb     F
and, oh, I cannae breathe?

[Interval #2] x2

[Verse - Sung with the Main Melody]
October cries. September pains. The blood from birth which comes again.
The farm to yield, the crop is slain, the bloody labourer maintains.

Dm           Bb        F             Gm/F F
Whose is the blood now smeared across my door
       Dm      Bb     F     Gm/F F
While, oh, the shadow creeps?
    Dm           Bb        F              Gm/F F
and whose is the voice now calling through the noise?
       Dm    Bb       F
Says, 'go ye prophet, lead.'

[Main Melody] x 2





            
            
Suggest correction
Creating personal tab
Creating personal tab
You can edit any tab online and save it as your Personal.

You can edit, replace or remove any tab part or add personal notes – all changes will be seen only by you.

Personal tabs can be accessed anytime from any device, even offline.
Learn more »
Give kudos to tab author, rate the tab!
1 2 3 4 5
comments
print report bad tab
guest
You may want to rate the tab now too:
select rating
Wanna post a correction for this tab? Suggest correction