Oops, an error
Loading. Please wait.

Circles tab

version 2
version 2

Whole song

6,334 views 36 this week
no commentswrite comment
1 2 3 4 5
x 12
add to favorites
×
Save as Personal and add changes to this tab that will be seen only by you. Learn more ›
×
You can save this tab as Personal to edit and correct it or add notes. All changes will be seen only by you. Learn more »
launch autoscroll
font size
0
reset
how to read this tab
guitar tuner
edit
Autoscroll
slow
fast
+/-
esc
set tempo
stop
Author
Difficulty
Artist : The Eden Project
Song : Circles
Part of the song : Whole Song

This song was transcribed by ----> 
https://www.youtube.com/channel/UCZkw8Tyz2ZY2-RDEDdCHoQQ Thank him,
not me.
I put it in tab form mainly because I prefer learning songs like this instead of video tutorials
I tried my best to change the outrro to fit the song a bit more
Video Tutorial : https://www.youtube.com/watch?v=ltqhz1na0ms

The Eden Project : https://soundcloud.com/iameden/tracks

Chords Used:
G [Barre]
A [Barre]
D [Barre]
Bm
F#m
Em

     G       A       D
e|---3---|---5---|---5---|
B|---3---|---5---|---7---|
G|---4---|---6---|---7---|
D|---5---|---7---|---7---|
A|---5---|---7---|---5---|
E|---3---|---5---|---5---|

[Intro]

e|---10---10---10----------------------------9---9---9---------------------------|
B|------------------10---10---10---10---10----------------8---8---8--8\7---7-----|
G|-------------------------------------------------------------------------------|
D|-9----9----9-----------------------------7---7---7-----------------------------| x5
A|----------------9----9----9----9----9-----------------7---7---7-----\5-5-------|
E|-------------------------------------------------------------------------------|

e|---10---10---10----------------------------9---9---9---7---7---7---7---7-------|
B|------------------10---10---10---10---10---------------------------------------|
G|-------------------------------------------------------------------------------|
D|-9----9----9-----------------------------7---7---7--\5---5---5---5---5---------|
A|----------------9----9----9----9----9------------------------------------------|
E|-------------------------------------------------------------------------------|


[Verse 1]


          G      D    A
'cause I'm scared, of all that I don't know,
         F#m        Bm                     A
'cause I want it all but all of it ain't gold.
       G      D       A
And I'm scared, but I know it's not for long
           F#m         Bm                   A
'cause I'm learning what I should've long before.

[Chorus]

     G
That all we are,
     Bm              A
Is a light into the darkness;
    G
And all we are,
   Bm                    A
Is time that's counting down.
    G
And all we are,
   Bm                    A            G
Is falling through the spaces in between;
        Bm  A
Endless flight,

A lifetime in repeat.


(You can use a pick if you want)

e|-10/12-12-12-14-14-14-14-14-14-14-14-14-------------|---------------------------------------------------|
B|----------------------------------------15-15-15-15-|-14-14-14-15-15-15-12-12-12-12-12-12-12-12-12-12---|
G|----------------------------------------------------|---------------------------------------------------|
D|----------------------------------------------------|---------------------------------------------------|
A|----------------------------------------------------|---------------------------------------------------|
E|----------------------------------------------------|---------------------------------------------------|

e|-10/12-12-12-14-14-14-------------------------------|---------------------------------------------------|
B|----------------------15-15-15-15-15-15-14-14-14-14-|-14-14-14-15-15-15-12-12-12-12-12-12-12-12-12-12---|
G|----------------------------------------------------|---------------------------------------------------|
D|----------------------------------------------------|---------------------------------------------------|
A|----------------------------------------------------|---------------------------------------------------|
E|----------------------------------------------------|---------------------------------------------------|

[Verse 2]

e|---10---10---10----------------------------9---9---9---------------------------|
B|------------------10---10---10---10---10----------------8---8---8--8\7---7-----|
G|-------------------------------------------------------------------------------|
D|-9----9----9-----------------------------7---7---7-----------------------------|
A|----------------9----9----9----9----9-----------------7---7---7-----\5-5-------|
E|-------------------------------------------------------------------------------|

e|---10---10---10----------------------------9---9---9---7---7---7---7---7-------|
B|------------------10---10---10---10---10---------------------------------------|
G|-------------------------------------------------------------------------------|
D|-9----9----9-----------------------------7---7---7--\5---5---5---5---5---------|
A|----------------9----9----9----9----9------------------------------------------|
E|-------------------------------------------------------------------------------|

[Verse 3]

   G  D            A
Let go, give these ghosts a new home;
      F#m                  Bm                  A
Let's bury our past and our fears and all these bones.
   G    D             A
Let's go, I should've seen it long before;
                  F#m
'cause this is my life
           Bm
I will not run in circles
A
Ending where I start.


[Bridge]

   D
So hold on to me,

We'll burn out slowly.
    G
And feel our hearts leap

To words we don't mean:


[Verse 4]

Bm
Love.

Means nothing to me,
A                             Em
'cause I don't know what it is.
                     G
I'm just dying to be
                               Bm
All that I've been dreaming of.
                    A
And words betray me,
                       Em
Contradict all I stand for;
                   G  Bm  A
But I'm still learning.
                    Em  G  A
Yeah I'm still learning.


[Chorus]

     G
That all we are,
     Bm              A
Is a light into the darkness;
    G
And oh we are,
     Bm                    A
Just time that's counting down.
    G
And all we are,
   Bm                    A            G
Is falling through the spaces in between;
        Bm  A
Endless flight,


[Outro]

Falling to our knees.

  (D Shape)       (F#m Shape)
e|-------------------------------------------------|
B|-------7----------------2--------2--------2------|
G|-------7-------------------2--------2--------2---|
D|----7--------------------------------------------| x2
A|-5-------------------4--------4--------4---------|
E|----------------0h2------------------------------|

  (D Shape)       (F#m Shape)
e|-------------------------------------------------|
B|-------7----------------2--------2--------2--3---|
G|-------7-------------------2--------2------------|
D|----7--------------------------------------------|
A|-5-------------------4--------4--------4---------|
E|----------------0h2------------------------------|

  (Bm Shape)      (G Shape)                      (G Shape)
e|-------------------------------|------------------------------------|
B|-------3---3/5---------3-------|--------2/3----------3-----------5--|
G|----4----4-------------4-------|--------2/4----------4--------------|
D|-------------------------------|------------------------------------|
A|-2------------------------5----|---------------5--------------------|
E|--------------------3----------|---3--------------3-----------3-----|

   (F#m)   (G)                                   (F#m) (G)
e|-------------------------------|------------------------------------|
B|--2-------3-----------3--------|-5-----5--------2-----3-------3-----|
G|--2-------4--------------4-----|----7-----7-----2-----4-------4-----|
D|-------------------------------|------------------------------------|
A|-------------------------------|------------------------------------|
E|--2-------3--------3-----------|----------------2-----3----3--------|


Slide from G to A...

************************************

| h  Hammer-on
| /  Slide up
| \  Slide down

************************************

            
            
Suggest correction
Creating personal tab
Creating personal tab
You can edit any tab online and save it as your Personal.

You can edit, replace or remove any tab part or add personal notes – all changes will be seen only by you.

Personal tabs can be accessed anytime from any device, even offline.
Learn more »
comments
print report bad tab
guest
You may want to rate the tab now too:
select rating
Wanna post a correction for this tab? Suggest correction