Oops, an error
Loading. Please wait.

Death Of A Dream chords

17,877 views 195 this week
10 commentsread comments
1 2 3 4 5
x 31
add to favorites
×
Save as Personal and add changes to this tab that will be seen only by you. Learn more ›
×
You can save this tab as Personal to edit and correct it or add notes. All changes will be seen only by you. Learn more »
launch autoscroll
font size
0
reset
transpose
0
reset
simplify chords
display chords
guitar tuner
edit
Autoscroll
slow
fast
+/-
esc
set tempo
stop
Strumming
There is no strumming pattern for this song yet. and get +5 IQ
CAPO 2

[Intro] Am7 G/B C F x2

[Verse 1]
           Am7   G/B                C           F
I find it funny, the lights we shone, burn us out
           Am7          G/B          C
So i just keep running, but i can't catch this horizon
 F
It's always just further than;
 
[Pre-Chorus]
 Dm        Am           C                     G/B
I know it never ends, i fear what im dreaming of.
        Dm                    Am                G/B
And i know, it feels like heaven, when you are lost.

[Chorus]
       Dm         Am      G/B
And it feels like im out of time.
       Dm              Am         G/B
And it feels like an end I can't overwrite.
              Am7   G/B   C  F x2 (Intro)
No not this time

[Verse 2]
            Am7       G/B              C               F
In the beginning, we always dreamed to be where we are now.
           Am7         G/B                  C
The human condition, we chase lines that we redefine
    F                       Dm
So close but still so far.

[Pre-Chorus 2]
Dm            Am           C                 G/B
Im falling apart, want to be what the world forgot,
        Dm                 Am                  G/B
And i know, it feels like heaven when you are lost.

[Chorus]
       Dm         Am         G/B
But it feels like im out of time.
       Dm            Am           G/B
And it feels like an end i can't overwrite.
       
(End)     
       Dm           Am                     C
And it feels like im watching my childhood dreams,
              F
Just fade and die.
           Dm         Am              G
Oh we grow older, but never learn to say

Goodbye. 

[Outro] Am7 G/B C F x2

The Eden Project Soundcloud : https://soundcloud.com/the-eden-project

            
            
Suggest correction
Creating personal tab
Creating personal tab
You can edit any tab online and save it as your Personal.

You can edit, replace or remove any tab part or add personal notes – all changes will be seen only by you.

Personal tabs can be accessed anytime from any device, even offline.
Learn more »
comments
print report bad tab
10 comments total. Showing first comments.
+1 reply
ellardi 10 Oct 22, 2014 05:06 PM

Fingerstyle intro tab anyone?

+4 reply
steve_brinkma 10 Feb 16, 2015 11:25 AM

Yep, this is how I usually play it :) hope you like it and you'll find it nice to play, sounds correct to my ears. Just listen to the song on soundcloud and you'll be able to correctly interpret the tab hopefully :-P have fun!

capo 2nd frat :)

e|----3---------------3----------------------------------------------
B|----1-----1-1-------0------0-0------1-1------1-------1-------------
G|----------0-0--------------0-0------0-0------0-------0---0/2\0-----
D|------------------------0----------------0/2-------------------0-2-
A|--0----0-------0/2--------------2/3--------------------------------
E|-------------------------------------------------0-1---------------

e|----3---------------3-----------------------------------------------1-----1--
B|----1-----1-1-------0------0-0------1-1------1-------1--------------0-----0--
G|----------0-0--------------0-0------0-0------0-------0-----------------------
D|-----------------------------------------0/2-------------0/2--0---------2----
A|--0----0-------0/2------0-------2/3-----------------------------3------------
E|-------------------------------------------------0-1--------------1----------

+5 reply
steve_brinkma 10 Feb 16, 2015 11:28 AM

Yep, this is how I usually play it :) hope you like it and you'll find it nice to play, sounds correct to my ears. Just listen to the song on soundcloud and you'll be able to correctly interpret the tab hopefully :-P have fun!

capo 2nd frat :)

e|----3---------------3----------------------------------------------
B|----1-----1-1-------0------0-0------1-1------1-------1-------------
G|----------0-0--------------0-0------0-0------0-------0---0/2\0-----
D|------------------------0----------------0/2-------------------0-2-
A|--0----0-------0/2--------------2/3--------------------------------
E|-------------------------------------------------0-1---------------

e|----3---------------3--------------------------------------------------------
B|----1-----1-1-------0------0-0------1-1------1-------1--------------1-----1--
G|----------0-0--------------0-0------0-0------0-------0--------------0-----0--
D|-----------------------------------------0/2-------------0/2--0---------2----
A|--0----0-------0/2------0-------2/3-----------------------------3------------
E|-------------------------------------------------0-1--------------1----------

guest
You may want to rate the tab now too:
select rating
Wanna post a correction for this tab? Suggest correction